Sound will begin in 5 seconds

Toccatr

Chords
01234567891011121314151617181920212223
E
B
G
D
A
E
B
0 1 2 3 4 5 6 7 8 9 10 11 12 13 14 15 16 17 18 19 20 21 22 23
Song Science #1: How Pros Use 6 Chords to Write Hit Songs
(/) Slide Up  (\) Slide Down  (h) Hammer On  (p) Pull Off  (b) Bend (r) Release (v) Vibrato

Stave 1:

E|--17--15--17-----15-------------------------|------------------------------
B|---------------------18--17--15--14--15-----|------------------------------
G|--------------------------------------------|--14--12--14------------------
D|--------------------------------------------|--------------14--15--11--12--
A|--------------------------------------------|------------------------------
E|--------------------------------------------|------------------------------

Stave 2:

E|----------------------------------------------|--------------0--------------
B|----------------------------------------------|-----------2-----------------
G|----------------------------------------------|--------3--------------------
D|----------------------------------------------|-----5-----------------------
A|--12--10--12-----10---------------------------|--4--------------------------
E|---------------------13--12--10--9--10--------|-----------------------------

Stave 3:

E|-----------------------------------------------------------------------|--
B|--3--------------------------------------------------------------------|--
G|--2--------------------------------------------------------------------|--
D|--5-----2-----4--------------------------------------------------------|--
A|-----------------------4-----5--7--4--5--7--4--5--7--4-----5-----7-----|--
E|-----------------------------------------------------------------------|--

Stave 4:

E|-----------------------------|-----------------------------------------|--
B|-----------------------------|-----------------------------------------|--
G|-----------------------------|-----------------------------------------|--
D|-----------------------------|--7--8--5--7--8--5--7--8--5-----7--------|--
A|--8--10--7--8--10--7--8--10--|-----------------------------------------|--
E|-----------------------------|-----------------------------------------|--

Stave 5:

E|--------------------|--------------------------------------------------|--
B|--------------------|--------------------------------------------------|--
G|--------------6-----|--7--9--6--7--9--6--7--9--6--7-----9--------------|--
D|--------------------|--------------------------------------------------|--
A|--------------------|--------------------------------------------------|--
E|--------------------|--------------------------------------------------|--

Stave 6:

E|-------------------------------------------------|------------------------------------------|--
B|-------------------------------------------------|------------------------------------------|--
G|--10--12--9--10--12--9--10--12--9-----10-----12--|--14--15--12--14--15--12--14--15--12--14--|--
D|-------------------------------------------------|------------------------------------------|--
A|-------------------------------------------------|------------------------------------------|--
E|-------------------------------------------------|------------------------------------------|--

Stave 7:

E|--
B|--
G|--
D|--
A|--
E|--

http://www.guitartabcreator.com
Guitar Tab Creator is intended to store guitar tab created through the tool. It currently does not support in-line text editing. Any text you place in here will be lost. If you need to comment on your tab, please use the "Tab Notes" section located below.