AM EP237

Chords

01234567891011121314151617181920212223
E
B
G
D
A
E
B
0 1 2 3 4 5 6 7 8 9 10 11 12 13 14 15 16 17 18 19 20 21 22 23
(/) Slide Up  (\) Slide Down  (h) Hammer On  (p) Pull Off  (b) Bend (r) Release (v) Vibrato

Stave 1:

E|--------2--4/7--4-------------------------------------------0---------------------------|--
B|--3--2-------------7b8r7--5-------------------5-----7b8r7v-----0------------------------|--
G|--3--2-------------------------------------6-----6----------------2--0h1----------------|--
D|--2--1----------------------------------------------------------------------------------|--
A|--3--2-------------------------------2--------------------------------------------2-----|--
E|-----------------------------0--2/4-----0---------------------------------0--2/4-----0--|--

Stave 2:

E|-----------2--4b2-------------------------
B|-----2--4----------4--2--4----------------
G|--3----------------------5----------------
D|------------------------------------2-----
A|----------------------------0--2/4-----0--
E|------------------------------------------

							http://www.guitartabcreator.com
genre
Instruments
{"strings":[[[".",".",2,4,"/",7,4,".",".",".",".",".",".",".",".",".",".",".",".",".",".",".",".",".",".",".",".",".",0,".",".",".",".",".",".",".",".",".",".",".","|"],[3,2,".",".",".",".",".",7,"b",8,"r",7,5,".",".",".",".",".",".",".",5,".",7,"b",8,"r",7,"v",".",0,".",".",".",".",".",".",".",".",".",".","|"],[3,2,".",".",".",".",".",".",".",".",".",".",".",".",".",".",".",".",".",6,".",6,".",".",".",".",".",".",".",".",2,0,"h",1,".",".",".",".",".",".","|"],[2,1,".",".",".",".",".",".",".",".",".",".",".",".",".",".",".",".",".",".",".",".",".",".",".",".",".",".",".",".",".",".",".",".",".",".",".",".",".",".","|"],[3,2,".",".",".",".",".",".",".",".",".",".",".",".",".",".",".",2,".",".",".",".",".",".",".",".",".",".",".",".",".",".",".",".",".",".",".",".",2,".","|"],[".",".",".",".",".",".",".",".",".",".",".",".",".",0,2,"/",4,".",0,".",".",".",".",".",".",".",".",".",".",".",".",".",".",".",0,2,"/",4,".",0,"|"]],[[".",".",".",2,4,"b",2,".",".",".",".",".",".",".",".","."],[".",2,4,".",".",".",".",4,2,4,".",".",".",".",".","."],[3,".",".",".",".",".",".",".",".",5,".",".",".",".",".","."],[".",".",".",".",".",".",".",".",".",".",".",".",".",".",2,"."],[".",".",".",".",".",".",".",".",".",".",0,2,"/",4,".",0],[".",".",".",".",".",".",".",".",".",".",".",".",".",".",".","."]]],"numberofstrings":6,"notes":["E","B","G","D","A","E","B"],"capo":0,"stringnotes":["E4","B3","G3","D3","A2","E2"],"comments":["Stave 1:","Stave 2:"],"timing":[["W","W","Q","Q",null,"Q","Q","Q",null,"Q",null,"Q","Q","Q","Q",null,"Q","Q","Q","W","W","W","W",null,"W",null,"W",null,"W","W","W","W",null,"W","W","W",null,"W","W","W"],["W","W","W","W","W","W","W","W","W","W","W","W",null,"W","W","W"]],"timingvisible":false,"tabcounter":16,"stave":1,"totalstaves":2,"instrument":"6guitar","selectedtuning":"6_standard","version":"13"}

Member for

1 week 1 day
Submitted by JohanK on Mon, 2020-06-29 07:48