Sound will begin in 5 seconds

Sweet Child O mine

01234567891011121314151617181920212223
E
B
G
D
A
E
B
0 1 2 3 4 5 6 7 8 9 10 11 12 13 14 15 16 17 18 19 20 21 22 23
(/) Slide Up  (\) Slide Down  (h) Hammer On  (p) Pull Off  (b) Bend (r) Release (v) Vibrato

Stave 1:

G|----------11------11--12--14--16--14--12--11------14------12------10--9------10--9------
D|------12------12------------------------------12------10------10---------10---------10--
A|--12------------------------------------------------------------------------------------
E|----------------------------------------------------------------------------------------

Stave 2:

G|-----------------12------------12--11------12--11----------
D|----------10\12------------12----------12----------12--12--
A|------10---------------------------------------------------
E|--10-------------------------------------------------------

Stave 3:

G|--------------------------------------------------------------------------------7--7--7--7--
D|--------------4--7--4--------------------3--2-----------------------------------------------
A|--5--5--5--5-----------0--3--3--3--3--3--------3--0-----------------5--5--5--5--------------
E|-----------------------------------------------------3--3--3--3--3--------------------------

Stave 4:

G|-----------------------------------------------------------
D|-----5--4-----5--4--------------------3--2-----3--2--------
A|--5--------5--------5--------------3--------3--------3-----
E|--------------------------------------------------------3--

Stave 5:

G|-----------------------------------------5--7--7--7--7--7--
D|-----------------------------------------------------------
A|--0--0-----0--2--3-----3--3--0--5--5--5--------------------
E|-----------------------------------------------------------

Stave 6:

G|--------------------------
D|--------------------------
A|--------3--3--2--2--------
E|--0--0--------------0--0--

Stave 7:

G|--------------------------
D|--------------------------
A|--------3--3--2--2--0--0--
E|--0--0--------------------

Stave 8:

G|-----------------------------------------------------
D|-----------------------------------------------------
A|--------------0--0--3--3--------------3--3--3--5-----
E|--0--0--3--3--------------------------------------3--

Stave 9:

G|--------------------------------------
D|--------------------------------------
A|-----------------0--0--3--3--3--5-----
E|--0--0--2--3--3--------------------3--

Stave 10:

G|-----------------------
D|-----------------------
A|--7--5-----------------
E|--------8--7--5--3--0--

http://www.guitartabcreator.com
Guitar Tab Creator is intended to store guitar tab created through the tool. It currently does not support in-line text editing. Any text you place in here will be lost. If you need to comment on your tab, please use the "Tab Notes" section located below.