Sound will begin in 5 seconds

The Pretender (Bass)

01234567891011121314151617181920212223
E
B
G
D
A
E
B
0 1 2 3 4 5 6 7 8 9 10 11 12 13 14 15 16 17 18 19 20 21 22 23
(/) Slide Up  (\) Slide Down  (h) Hammer On  (p) Pull Off  (b) Bend (r) Release (v) Vibrato

Stave 1:

G|-----------------------------------------------------------------------------------------------
D|-----------------------------------------------------------------------------------------------
A|-----------------------------------------------------------------------------------------------
E|--5--5-----5--5--5--5-----5--5-----5--5--5--5-----2--2-----2--2--2--2-----1--1-----1--1--1--1--

Stave 2:

G|--------------------------------------------------------------
D|--------------------------------------------------------------
A|--------------------------------------------------------------
E|--------1--0--3--------------------2--0--7-----------1--0--3--

Stave 3:

G|-----------------------------------------------------
D|-----------------------------------------------------
A|-----------------------------------------------------
E|--5--5--5--5--5--------2--2--2--2--------1--1--1--1--

Stave 4:

G|------------------------------------------------------
D|------------------------------------------------------
A|--5--5--5--5--7--7--7--7--9--9--9--9--10--10--10--10--
E|------------------------------------------------------

Stave 5:

G|--------------------------------------------------------------------------------------------------
D|--------------------------------------------------------------------------------------------------
A|--------------------------------------------------------9--9--9-----9--9--8--8--8--8-----8--8--8--
E|--5--5--5--5--5--5--7--7--7--7--7--8--8--8--5--5--5--5-----------9--------------------8-----------

Stave 6:

G|--------------------------------------------------------------------------------------------------
D|--------------------------------------------------------------------------------------------------
A|--------------------------------------------------------------------3--4--5--------3--4--5--------
E|--5-----5-----5-----5-----------5--5--5--5--5--5--5--5--------3--5-----------3--5-----------------

http://www.guitartabcreator.com
Guitar Tab Creator is intended to store guitar tab created through the tool. It currently does not support in-line text editing. Any text you place in here will be lost. If you need to comment on your tab, please use the "Tab Notes" section located below.