Sound will begin in 5 seconds

OtherSide

01234567891011121314151617181920212223
E
B
G
D
A
E
B
0 1 2 3 4 5 6 7 8 9 10 11 12 13 14 15 16 17 18 19 20 21 22 23
(/) Slide Up  (\) Slide Down  (h) Hammer On  (p) Pull Off  (b) Bend (r) Release (v) Vibrato

Stave 1:

E|-----------------------------------------
B|-----------------------------------------
G|-----------------------------------------
D|-----------------------------------------
A|-----------------------3--3--------------
E|--5--5--5--3--1--1--1--------0--3--3--3--

Stave 2:

E|--------------------------------------------
B|--------------------------------------------
G|--------------------------------------------
D|--------------------------------------------
A|-----------------------3--3--------3--2-----
E|--5--5--5--3--1--1--1--------0--3--------3--

Stave 3:

E|--------------------------------------------
B|--------------------------------------------
G|--------------------------------------------
D|--------------------------------------5-----
A|-----------------------3--3-----------------
E|--5--5--5--3--1--1--1--------0--3--3-----3--

Stave 4:

E|------------------------------------------------------------------------------------------------
B|------------------------------------------------------------------------------------------------
G|------------------------------------------------------------------------------------------------
D|-----------------------7\14--14--14--14--14-----------------------7\14--------------------------
A|--0--0--0--0--0--0--0------------------------0--0--0--0--0--0--0--------14--14--14--14--14--14--
E|------------------------------------------------------------------------------------------------

Stave 5:

E|--------------------------
B|--------------------------
G|--------------------------
D|--------------------------
A|--------------------------
E|--0-----------3--------5--

Stave 6:

E|--------------------------------------------------------------------------------------------------------
B|--------------------------------------------------------------------------------------------------------
G|--------------------------------------------------------------------------------------------------------
D|--------------------------------------------------------------------------------------------------------
A|--------------------------------10--10--10--10--10--10--10--10--10--12--12--12--12------12------12------
E|--0--------3--------5---------------------------------------------------------------12------12------12--

Stave 7:

E|--------------------------------------------------------------------
B|--------------------------------------------------------------------
G|--------------------------------------------------------------------
D|--------------------------------------------------------------------
A|-----7--5--7-----7--5--7--------------------------10--10--10--9--5--
E|--0-----------0-----------0--5--7--8--8--7--8--8--------------------

Stave 8:

E|-----------------------------------------------------------------------
B|-----------------------------------------------------------------------
G|-----------------------------------------------------------------------
D|-----------------------------------------------------------------------
A|-----7--5-----7--5--7--------------------------10--9--7--9--10--7------
E|--0--------0-----------0--5--7--8--8--7--8--8----------------------10--

Stave 9:

E|-----------------------------------------
B|-----------------------------------------
G|-----------------------------------------
D|-----------------------------------------
A|-----------------------------3--3--3--3--
E|--5--5--5--5--3--1--1--1--1--------------

http://www.guitartabcreator.com
Guitar Tab Creator is intended to store guitar tab created through the tool. It currently does not support in-line text editing. Any text you place in here will be lost. If you need to comment on your tab, please use the "Tab Notes" section located below.