Sound will begin in 5 seconds

Sound of Silence - Disturbed

01234567891011121314151617181920212223
E
B
G
D
A
E
B
0 1 2 3 4 5 6 7 8 9 10 11 12 13 14 15 16 17 18 19 20 21 22 23
Song Science #1: How Pros Use 6 Chords to Write Hit Songs
(/) Slide Up  (\) Slide Down  (h) Hammer On  (p) Pull Off  (b) Bend (r) Release (v) Vibrato

Stave 1:

E|---------------------------------------------
B|---------------------------------------------
G|---------------------------------------------
D|---------------------------------------------
A|--------------4--4\2-------------------------
E|--2--2--5--5----------4--4--4--4--4/7--5--5--

Stave 2:

E|-------------------------------------------------------------
B|-------------------------------------------------------------
G|-------------------------------------------------------------
D|-----------------2--2--2/4--4/2--------------2--2--2/4--4\2--
A|-----------4--4------------------------4--4------------------
E|--5--5--5------------------------5--5------------------------

Stave 3:

E|-----------------------------------------------------------------
B|-----------------------------------------------------------------
G|-----------------------------------------------------------------
D|--------4--4--4/6--6/7--7--6\4\2--2/4\2--------------------------
A|-----------------------------------------4-----------7-----------
E|--5--5--------------------------------------5--5--5-----4b6r4\2--

Stave 4:

E|------------------------------------------------------
B|------------------------------------------------------
G|------------------------------------------------------
D|------------------------------------------------------
A|------------------4p2p0-----2-------------------------
E|--1/2--2--2\5--5---------------4--4--4--4--4/7--7--5--

Stave 5:

E|-------------------------------------------------------------
B|-------------------------------------------------------------
G|-------------------------------------------------------------
D|--------------2--2--2/4--4\2--2--2--0--------------2/4--4\2--
A|--------4--4---------------------------4--2--0---------------
E|--5--5------------------------------------------0------------

Stave 6:

E|--------------------------------------------------------------------
B|--------------------------------------------------------------------
G|--------------------------------------------------------------------
D|-----4--4-----4--4--4h6/7--7--6\4\2--2/4\2--------------------------
A|--------------------------------------------4-----------7-----------
E|--5--------------------------------------------5--5--5-----4b6r4\2--

Stave 7:

E|--------------------------------
B|--------------------------------
G|--------------------------------
D|--1/4--4--4/7--7--9b11r9p7--9v--
A|--------------------------------
E|--------------------------------

Stave 8:

E|-------------------------------------
B|-------------------------------------
G|-------------------------------------
D|--1/6--6--6--6--6--8b10r8--6v--6b8v--
A|-------------------------------------
E|-------------------------------------

Stave 9:

E|------------------------------------------------------------------------
B|------------------------------------------------------------------------
G|----------6--6--9--9--9b11r10b12r9v----------6--6--9--9--9b11r10b12r9v--
D|--1\6--6-----------------------------1\6--6-----------------------------
A|------------------------------------------------------------------------
E|------------------------------------------------------------------------

http://www.guitartabcreator.com
Guitar Tab Creator is intended to store guitar tab created through the tool. It currently does not support in-line text editing. Any text you place in here will be lost. If you need to comment on your tab, please use the "Tab Notes" section located below.