Sound will begin in 5 seconds

nothing else matters

Chords
01234567891011121314151617181920212223
E
B
G
D
A
E
B
0 1 2 3 4 5 6 7 8 9 10 11 12 13 14 15 16 17 18 19 20 21 22 23
Song Science #1: How Pros Use 6 Chords to Write Hit Songs
(/) Slide Up  (\) Slide Down  (h) Hammer On  (p) Pull Off  (b) Bend (r) Release (v) Vibrato

Stave 1:

E|-----------0-----------------0-----------------0-----------------0-----7--
B|--------0-----0-----------0-----0-----------0-----0-----------0-----0-----
G|-----0-----------0-----0-----------0-----0-----------0-----0--------------
D|--------------------------------------------------------------------------
A|--------------------------------------------------------------------------
E|--0-----------------0-----------------0-----------------0-----------------

Stave 2:

E|--7--------7p0--------------7--8--7\5--5--7p5--5\3p0--
B|-----0----------0-----------0-------------------------
G|--------0----------0-----0----------------------------
D|------------------------------------------------------
A|------------------------------------------------------
E|--0-------------------0-------------------------------

Stave 3:

E|-----------2p0-----------------------------3p0--------
B|--5-----5-------5-----5--5--5--------5----------5-----
G|--5--5-------------5--5--5--5-----5-----5----------5--
D|------------------------------------------------------
A|--0-------------------0--2--3--0----------------------
E|------------------------------------------------------

Stave 4:

E|--------------------5p0-----------------------12--
B|--5--7--------7----------7p0--0h5---------12------
G|--5--7-----7-----7--------------------12----------
D|--------------------------------------------------
A|--3--5--0-----------------------------------------
E|-----------------------------------0--------------

http://www.guitartabcreator.com
Guitar Tab Creator is intended to store guitar tab created through the tool. It currently does not support in-line text editing. Any text you place in here will be lost. If you need to comment on your tab, please use the "Tab Notes" section located below.