Sound will begin in 5 seconds

Ascending Circle of 5ths Scales

01234567891011121314151617181920212223
E
B
G
D
A
E
B
0 1 2 3 4 5 6 7 8 9 10 11 12 13 14 15 16 17 18 19 20 21 22 23
(/) Slide Up  (\) Slide Down  (h) Hammer On  (p) Pull Off  (b) Bend (r) Release (v) Vibrato

Stave 1:

E|--------------------------------------------------
B|--------------------------------------------------
G|-----------------2--4--5--------------------------
D|--------2--3--5--------------------------2--4--5--
A|--3--5--------------------------2--3--5-----------
E|--------------------------3--5--------------------

Stave 2:

E|--------------------------------------------------
B|--------------------------------------------------
G|-----------------4--6--7--------------------------
D|--------4--5--7--------------------------4--6--7--
A|--5--7--------------------------4--5--7-----------
E|--------------------------5--7--------------------

Stave 3:

E|--------------------------
B|--------------------------
G|-----------------6--8--9--
D|--------6--7--9-----------
A|--7--9--------------------
E|--------------------------

Stave 4:

E|--------------------------------------------------
B|--------------------------------------------------
G|-----------------1--3--4--------------------------
D|--------1--2--4--------------------------1--3--4--
A|--2--4--------------------------1--2--4-----------
E|--------------------------2--4--------------------

Stave 5:

E|--------------------------------------------------
B|--------------------------------------------------
G|-----------------3--5--6--------------------------
D|--------3--4--6--------------------------3--5--6--
A|--4--6--------------------------3--4--6-----------
E|--------------------------4--6--------------------

Stave 6:

E|--------------------------------------------------
B|--------------------------------------------------
G|-----------------5--7--8--------------------------
D|--------5--6--8--------------------------5--7--8--
A|--6--8--------------------------5--6--8-----------
E|--------------------------6--8--------------------

Stave 7:

E|--------------------------------------------------------
B|--------------------------------------------------------
G|-------------------7--9--10-----------------------------
D|---------7--8--10-----------------------------7--9--10--
A|--8--10-----------------------------7--8--10------------
E|-----------------------------8--10----------------------

http://www.guitartabcreator.com
Guitar Tab Creator is intended to store guitar tab created through the tool. It currently does not support in-line text editing. Any text you place in here will be lost. If you need to comment on your tab, please use the "Tab Notes" section located below.