Sound will begin in 5 seconds

E made better

01234567891011121314151617181920212223
E
B
G
D
A
E
B
0 1 2 3 4 5 6 7 8 9 10 11 12 13 14 15 16 17 18 19 20 21 22 23
Song Science #1: How Pros Use 6 Chords to Write Hit Songs
(/) Slide Up  (\) Slide Down  (h) Hammer On  (p) Pull Off  (b) Bend (r) Release (v) Vibrato

Stave 1:

E|------------------------------------------------------------------
B|------------------------------------------------------------------
G|------------------------------------------------------------------
D|-------------------5--7--7/9-------------------5--7--7/9--9\7-----
A|--------2--3/5--7-------------------2--3/5--7------------------7--
E|--0--3------------------------0--3--------------------------------

Stave 2:

E|-------------------------------------------------------------------------------
B|--9b10--7-----6/7--9b10--7-----9/10--9b10--7-----6/7--9b10--7-----9/10--12-----
G|-----------9----------------9-----------------9----------------9------------9--
D|-------------------------------------------------------------------------------
A|-------------------------------------------------------------------------------
E|-------------------------------------------------------------------------------

Stave 3:

E|------------------------------------------------------------------
B|-----------7-----------2-----------3-----------5------------------
G|--------9-----------4-----------5-----------7---------------------
D|-----9-----------4-----------5-----------7------------------------
A|--7-----------2-----------3-----------5-----------9--7\5----------
E|----------------------------------------------------------7--5/7--

Stave 4:

E|---------------------------------
B|---------------------------------
G|---------------------------------
D|-----7--5--7--5--3---------------
A|--------------------3--3/5--5/6--
E|--5------------------------------

Stave 5:

E|-------------------------
B|-------------------------
G|-------------------------
D|-----2-------------------
A|--------5--2--2/5--------
E|--0----------------7--5--

Stave 6:

E|--5h7h15--5h7h13--5h7h12--5h7h9--
B|---------------------------------
G|---------------------------------
D|---------------------------------
A|---------------------------------
E|---------------------------------

http://www.guitartabcreator.com
Guitar Tab Creator is intended to store guitar tab created through the tool. It currently does not support in-line text editing. Any text you place in here will be lost. If you need to comment on your tab, please use the "Tab Notes" section located below.