Silvera

Chords

01234567891011121314151617181920212223
E
B
G
D
A
E
B
0 1 2 3 4 5 6 7 8 9 10 11 12 13 14 15 16 17 18 19 20 21 22 23
(/) Slide Up  (\) Slide Down  (h) Hammer On  (p) Pull Off  (b) Bend (r) Release (v) Vibrato

Stave 1:

D|--------------------------------------------------------------------------
A|--------------------------------------------------------------------------
F|--------------------------------------------------------------------------
C|--------------------------------------------------------------------------
G|--3--2--------------------------------3-----2-----------------------------
D|--1--0-----3--2--1--0--3--2--1--0-----1-----0-----3--2--1--0--3--2--1--0--

Stave 2:

D|--------------------------------------------------------------------------
A|--------------------------------------------------------------------------
F|--------------------------------------------------------------------------
C|--------------------------------------------------------------------------
G|--3--2--------------------------------3-----2-----------------------------
D|--1--0-----3--2--1--0--3--2--1--0-----1-----0-----3--3--3--3--6--6--6--3--

Stave 3:

D|----------------------------------------------------------------
A|----------------------------------------------------------------
F|----------------------------------------------------------------
C|--------h9---p2h7p2h9p2h10p2h9p2h10p2h12p2h10p2h9p2h10p2h9p2h6--
G|--2-------------------------------------------------------------
D|--0-------------------------------------------------------------

Stave 4:

D|---------------------------------------------------------------------------------------------------
A|---------------------------------------------------------------------------------------------------
F|--10--9--------------------------------------------------------------------------------------------
C|--10--9--------------------------------------------------------------------------------------------
G|--8---7--------------------------------------------------------------------------------------------
D|------------0--0--0--0--0--------0--0--0--0--0--------0--0--0--0--0--------0--0--0--0--0--0--0--0--

Stave 5:

D|-------------------------------------------------------------------
A|-------------------------------------------------------------------
F|-------------------------------------------------------------------
C|--h12p7h12p7h12p7h12p7h12p7h12p7---h10p7h10p7h10p7h10p7h10p7h10p7--
G|-------------------------------------------------------------------
D|-------------------------------------------------------------------

Stave 6:

D|-----------------
A|-----------------
F|-----------------
C|--x--x--x--x--x--
G|--x--x--x--x--x--
D|--x--x--x--x--x--

Stave 7:

D|-----------------
A|-----------------
F|-----------------
C|-----------------
G|--3--3-----------
D|--1--1--------10\

Stave 8:

D|----------------------------------------------------------------------------------------------------
A|----------------------------------------------------------------------------------------------------
F|--h15p12h15p12h15p12h15p12h14p12h14p12h14p12h14p12h14p10h14p10h14p10h14p10h14p10h14p10h14p10h14p10--
C|----------------------------------------------------------------------------------------------------
G|----------------------------------------------------------------------------------------------------
D|----------------------------------------------------------------------------------------------------

Stave 9:

D|------------------------------------------------------------------------------------------------------
A|------------------------------------------------------------------------------------------------------
F|---h15hp12h15p12h14p12h14p12h15p12h15p12h15p12h15p12h14p10h14p10h14p10h14p10h14p10h14p10h14p10h14p10--
C|------------------------------------------------------------------------------------------------------
G|------------------------------------------------------------------------------------------------------
D|------------------------------------------------------------------------------------------------------

Stave 10:

D|--------------------------------------------
A|--------------------------------------------
F|--h14p7h14p7h14p7h14p7h14p7h14p7h14p7h14p7--
C|--------------------------------------------
G|--------------------------------------------
D|--------------------------------------------

Stave 11:

D|--h18p15h18p15h18p15h18p15h17p15h17p15h17p15h17p15h17p13h17p13h17p13h17p13h17p13h17p13h17p13h17p13--
A|----------------------------------------------------------------------------------------------------
F|----------------------------------------------------------------------------------------------------
C|----------------------------------------------------------------------------------------------------
G|----------------------------------------------------------------------------------------------------
D|----------------------------------------------------------------------------------------------------

Stave 12:

D|--h18p15h18p15h17p15h17p15h18p15h18p15h18p15h18p15h17p13h17p13h17p13h17p13h17p13h17p13h17p13h17p13--
A|----------------------------------------------------------------------------------------------------
F|----------------------------------------------------------------------------------------------------
C|----------------------------------------------------------------------------------------------------
G|----------------------------------------------------------------------------------------------------
D|----------------------------------------------------------------------------------------------------

Stave 13:

D|--h17p10h17p10h17p10h17p10h17p10h17p10h17p10h17p10--
A|----------------------------------------------------
F|----------------------------------------------------
C|----------------------------------------------------
G|----------------------------------------------------
D|----------------------------------------------------

							http://www.guitartabcreator.com
Tab Notes
h is Tap with the right hand
Instruments
{"strings":[[[".",".","_",".",".",".",".",".",".",".",".","_",".","_",".","_",".",".",".",".",".",".",".","."],[".",".","_",".",".",".",".",".",".",".",".","_",".","_",".","_",".",".",".",".",".",".",".","."],[".",".","_",".",".",".",".",".",".",".",".","_",".","_",".","_",".",".",".",".",".",".",".","."],[".",".","_",".",".",".",".",".",".",".",".","_",".","_",".","_",".",".",".",".",".",".",".","."],[3,2,"_",".",".",".",".",".",".",".",".","_",3,"_",2,"_",".",".",".",".",".",".",".","."],[1,0,"_",3,2,1,0,3,2,1,0,"_",1,"_",0,"_",3,2,1,0,3,2,1,0]],[[".",".","_",".",".",".",".",".",".",".",".","_",".","_",".","_",".",".",".",".",".",".",".","."],[".",".","_",".",".",".",".",".",".",".",".","_",".","_",".","_",".",".",".",".",".",".",".","."],[".",".","_",".",".",".",".",".",".",".",".","_",".","_",".","_",".",".",".",".",".",".",".","."],[".",".","_",".",".",".",".",".",".",".",".","_",".","_",".","_",".",".",".",".",".",".",".","."],[3,2,"_",".",".",".",".",".",".",".",".","_",3,"_",2,"_",".",".",".",".",".",".",".","."],[1,0,"_",3,2,1,0,3,2,1,0,"_",1,"_",0,"_",3,3,3,3,6,6,6,3]],[[".","_",".",".",".",".",".",".",".",".",".",".",".",".",".",".",".",".",".",".",".",".",".",".",".",".",".",".",".",".",".",".",".",".",".",".",".",".",".",".",".",".",".",".",".",".",".",".","."],[".","_",".",".",".",".",".",".",".",".",".",".",".",".",".",".",".",".",".",".",".",".",".",".",".",".",".",".",".",".",".",".",".",".",".",".",".",".",".",".",".",".",".",".",".",".",".",".","."],[".","_",".",".",".",".",".",".",".",".",".",".",".",".",".",".",".",".",".",".",".",".",".",".",".",".",".",".",".",".",".",".",".",".",".",".",".",".",".",".",".",".",".",".",".",".",".",".","."],[".","_","h",9,".","p",2,"h",7,"p",2,"h",9,"p",2,"h",10,"p",2,"h",9,"p",2,"h",10,"p",2,"h",12,"p",2,"h",10,"p",2,"h",9,"p",2,"h",10,"p",2,"h",9,"p",2,"h",6],[2,"_",".",".",".",".",".",".",".",".",".",".",".",".",".",".",".",".",".",".",".",".",".",".",".",".",".",".",".",".",".",".",".",".",".",".",".",".",".",".",".",".",".",".",".",".",".",".","."],[0,"_",".",".",".",".",".",".",".",".",".",".",".",".",".",".",".",".",".",".",".",".",".",".",".",".",".",".",".",".",".",".",".",".",".",".",".",".",".",".",".",".",".",".",".",".",".",".","."]],[[".",".",".",".",".",".",".",".",".",".",".",".",".",".",".",".",".",".",".",".",".",".",".",".",".",".",".",".",".",".",".","."],[".",".",".",".",".",".",".",".",".",".",".",".",".",".",".",".",".",".",".",".",".",".",".",".",".",".",".",".",".",".",".","."],[10,9,".",".",".",".",".",".",".",".",".",".",".",".",".",".",".",".",".",".",".",".",".",".",".",".",".",".",".",".",".","."],[10,9,".",".",".",".",".",".",".",".",".",".",".",".",".",".",".",".",".",".",".",".",".",".",".",".",".",".",".",".",".","."],[8,7,".",".",".",".",".",".",".",".",".",".",".",".",".",".",".",".",".",".",".",".",".",".",".",".",".",".",".",".",".","."],[".",".",".",0,0,0,0,0,".",".",0,0,0,0,0,".",".",0,0,0,0,0,".",".",0,0,0,0,0,0,0,0]],[[".",".",".",".",".",".",".",".",".",".",".",".",".",".",".",".",".",".",".",".",".",".",".",".",".",".",".",".",".",".",".",".",".",".",".",".",".",".",".",".",".",".",".",".",".",".",".",".","."],[".",".",".",".",".",".",".",".",".",".",".",".",".",".",".",".",".",".",".",".",".",".",".",".",".",".",".",".",".",".",".",".",".",".",".",".",".",".",".",".",".",".",".",".",".",".",".",".","."],[".",".",".",".",".",".",".",".",".",".",".",".",".",".",".",".",".",".",".",".",".",".",".",".",".",".",".",".",".",".",".",".",".",".",".",".",".",".",".",".",".",".",".",".",".",".",".",".","."],["h",12,"p",7,"h",12,"p",7,"h",12,"p",7,"h",12,"p",7,"h",12,"p",7,"h",12,"p",7,".","h",10,"p",7,"h",10,"p",7,"h",10,"p",7,"h",10,"p",7,"h",10,"p",7,"h",10,"p",7],[".",".",".",".",".",".",".",".",".",".",".",".",".",".",".",".",".",".",".",".",".",".",".",".",".",".",".",".",".",".",".",".",".",".",".",".",".",".",".",".",".",".",".",".",".",".",".",".","."],[".",".",".",".",".",".",".",".",".",".",".",".",".",".",".",".",".",".",".",".",".",".",".",".",".",".",".",".",".",".",".",".",".",".",".",".",".",".",".",".",".",".",".",".",".",".",".",".","."]],[[".",".",".",".","."],[".",".",".",".","."],[".",".",".",".","."],["x0","x0","x0","x0","x0"],["x0","x0","x0","x0","x0"],["x0","x0","x0","x0","x0"]],[[".",".","_","_",".","."],[".",".","_","_",".","."],[".",".","_","_",".","."],[".",".","_","_",".","."],[3,3,"_","_",".","."],[1,1,"_","_",10,"\\"]],[[".",".",".",".",".",".",".",".",".",".",".",".",".",".",".",".",".",".",".",".",".",".",".",".",".",".",".",".",".",".",".",".",".",".",".",".",".",".",".",".",".",".",".",".",".",".",".",".",".",".",".",".",".",".",".",".",".",".",".",".",".",".",".","."],[".",".",".",".",".",".",".",".",".",".",".",".",".",".",".",".",".",".",".",".",".",".",".",".",".",".",".",".",".",".",".",".",".",".",".",".",".",".",".",".",".",".",".",".",".",".",".",".",".",".",".",".",".",".",".",".",".",".",".",".",".",".",".","."],["h",15,"p",12,"h",15,"p",12,"h",15,"p",12,"h",15,"p",12,"h",14,"p",12,"h",14,"p",12,"h",14,"p",12,"h",14,"p",12,"h",14,"p",10,"h",14,"p",10,"h",14,"p",10,"h",14,"p",10,"h",14,"p",10,"h",14,"p",10,"h",14,"p",10,"h",14,"p",10],[".",".",".",".",".",".",".",".",".",".",".",".",".",".",".",".",".",".",".",".",".",".",".",".",".",".",".",".",".",".",".",".",".",".",".",".",".",".",".",".",".",".",".",".",".",".",".",".",".",".",".",".",".",".",".",".",".",".",".",".",".",".",".","."],[".",".",".",".",".",".",".",".",".",".",".",".",".",".",".",".",".",".",".",".",".",".",".",".",".",".",".",".",".",".",".",".",".",".",".",".",".",".",".",".",".",".",".",".",".",".",".",".",".",".",".",".",".",".",".",".",".",".",".",".",".",".",".","."],[".",".",".",".",".",".",".",".",".",".",".",".",".",".",".",".",".",".",".",".",".",".",".",".",".",".",".",".",".",".",".",".",".",".",".",".",".",".",".",".",".",".",".",".",".",".",".",".",".",".",".",".",".",".",".",".",".",".",".",".",".",".",".","."]],[[".",".",".",".",".",".",".",".",".",".",".",".",".",".",".",".",".",".",".",".",".",".",".",".",".",".",".",".",".",".",".",".",".",".",".",".",".",".",".",".",".",".",".",".",".",".",".",".",".",".",".",".",".",".",".",".",".",".",".",".",".",".",".",".",".","."],[".",".",".",".",".",".",".",".",".",".",".",".",".",".",".",".",".",".",".",".",".",".",".",".",".",".",".",".",".",".",".",".",".",".",".",".",".",".",".",".",".",".",".",".",".",".",".",".",".",".",".",".",".",".",".",".",".",".",".",".",".",".",".",".",".","."],[".","h",15,"h","p",12,"h",15,"p",12,"h",14,"p",12,"h",14,"p",12,"h",15,"p",12,"h",15,"p",12,"h",15,"p",12,"h",15,"p",12,"h",14,"p",10,"h",14,"p",10,"h",14,"p",10,"h",14,"p",10,"h",14,"p",10,"h",14,"p",10,"h",14,"p",10,"h",14,"p",10],[".",".",".",".",".",".",".",".",".",".",".",".",".",".",".",".",".",".",".",".",".",".",".",".",".",".",".",".",".",".",".",".",".",".",".",".",".",".",".",".",".",".",".",".",".",".",".",".",".",".",".",".",".",".",".",".",".",".",".",".",".",".",".",".",".","."],[".",".",".",".",".",".",".",".",".",".",".",".",".",".",".",".",".",".",".",".",".",".",".",".",".",".",".",".",".",".",".",".",".",".",".",".",".",".",".",".",".",".",".",".",".",".",".",".",".",".",".",".",".",".",".",".",".",".",".",".",".",".",".",".",".","."],[".",".",".",".",".",".",".",".",".",".",".",".",".",".",".",".",".",".",".",".",".",".",".",".",".",".",".",".",".",".",".",".",".",".",".",".",".",".",".",".",".",".",".",".",".",".",".",".",".",".",".",".",".",".",".",".",".",".",".",".",".",".",".",".",".","."]],[[".",".",".",".",".",".",".",".",".",".",".",".",".",".",".",".",".",".",".",".",".",".",".",".",".",".",".",".",".",".",".","."],[".",".",".",".",".",".",".",".",".",".",".",".",".",".",".",".",".",".",".",".",".",".",".",".",".",".",".",".",".",".",".","."],["h",14,"p",7,"h",14,"p",7,"h",14,"p",7,"h",14,"p",7,"h",14,"p",7,"h",14,"p",7,"h",14,"p",7,"h",14,"p",7],[".",".",".",".",".",".",".",".",".",".",".",".",".",".",".",".",".",".",".",".",".",".",".",".",".",".",".",".",".",".",".","."],[".",".",".",".",".",".",".",".",".",".",".",".",".",".",".",".",".",".",".",".",".",".",".",".",".",".",".",".",".",".",".","."],[".",".",".",".",".",".",".",".",".",".",".",".",".",".",".",".",".",".",".",".",".",".",".",".",".",".",".",".",".",".",".","."]],[["h",18,"p",15,"h",18,"p",15,"h",18,"p",15,"h",18,"p",15,"h",17,"p",15,"h",17,"p",15,"h",17,"p",15,"h",17,"p",15,"h",17,"p",13,"h",17,"p",13,"h",17,"p",13,"h",17,"p",13,"h",17,"p",13,"h",17,"p",13,"h",17,"p",13,"h",17,"p",13],[".",".",".",".",".",".",".",".",".",".",".",".",".",".",".",".",".",".",".",".",".",".",".",".",".",".",".",".",".",".",".",".",".",".",".",".",".",".",".",".",".",".",".",".",".",".",".",".",".",".",".",".",".",".",".",".",".",".",".",".",".",".",".","."],[".",".",".",".",".",".",".",".",".",".",".",".",".",".",".",".",".",".",".",".",".",".",".",".",".",".",".",".",".",".",".",".",".",".",".",".",".",".",".",".",".",".",".",".",".",".",".",".",".",".",".",".",".",".",".",".",".",".",".",".",".",".",".","."],[".",".",".",".",".",".",".",".",".",".",".",".",".",".",".",".",".",".",".",".",".",".",".",".",".",".",".",".",".",".",".",".",".",".",".",".",".",".",".",".",".",".",".",".",".",".",".",".",".",".",".",".",".",".",".",".",".",".",".",".",".",".",".","."],[".",".",".",".",".",".",".",".",".",".",".",".",".",".",".",".",".",".",".",".",".",".",".",".",".",".",".",".",".",".",".",".",".",".",".",".",".",".",".",".",".",".",".",".",".",".",".",".",".",".",".",".",".",".",".",".",".",".",".",".",".",".",".","."],[".",".",".",".",".",".",".",".",".",".",".",".",".",".",".",".",".",".",".",".",".",".",".",".",".",".",".",".",".",".",".",".",".",".",".",".",".",".",".",".",".",".",".",".",".",".",".",".",".",".",".",".",".",".",".",".",".",".",".",".",".",".",".","."]],[["h",18,"p",15,"h",18,"p",15,"h",17,"p",15,"h",17,"p",15,"h",18,"p",15,"h",18,"p",15,"h",18,"p",15,"h",18,"p",15,"h",17,"p",13,"h",17,"p",13,"h",17,"p",13,"h",17,"p",13,"h",17,"p",13,"h",17,"p",13,"h",17,"p",13,"h",17,"p",13],[".",".",".",".",".",".",".",".",".",".",".",".",".",".",".",".",".",".",".",".",".",".",".",".",".",".",".",".",".",".",".",".",".",".",".",".",".",".",".",".",".",".",".",".",".",".",".",".",".",".",".",".",".",".",".",".",".",".",".",".",".",".",".","."],[".",".",".",".",".",".",".",".",".",".",".",".",".",".",".",".",".",".",".",".",".",".",".",".",".",".",".",".",".",".",".",".",".",".",".",".",".",".",".",".",".",".",".",".",".",".",".",".",".",".",".",".",".",".",".",".",".",".",".",".",".",".",".","."],[".",".",".",".",".",".",".",".",".",".",".",".",".",".",".",".",".",".",".",".",".",".",".",".",".",".",".",".",".",".",".",".",".",".",".",".",".",".",".",".",".",".",".",".",".",".",".",".",".",".",".",".",".",".",".",".",".",".",".",".",".",".",".","."],[".",".",".",".",".",".",".",".",".",".",".",".",".",".",".",".",".",".",".",".",".",".",".",".",".",".",".",".",".",".",".",".",".",".",".",".",".",".",".",".",".",".",".",".",".",".",".",".",".",".",".",".",".",".",".",".",".",".",".",".",".",".",".","."],[".",".",".",".",".",".",".",".",".",".",".",".",".",".",".",".",".",".",".",".",".",".",".",".",".",".",".",".",".",".",".",".",".",".",".",".",".",".",".",".",".",".",".",".",".",".",".",".",".",".",".",".",".",".",".",".",".",".",".",".",".",".",".","."]],[["h",17,"p",10,"h",17,"p",10,"h",17,"p",10,"h",17,"p",10,"h",17,"p",10,"h",17,"p",10,"h",17,"p",10,"h",17,"p",10],[".",".",".",".",".",".",".",".",".",".",".",".",".",".",".",".",".",".",".",".",".",".",".",".",".",".",".",".",".",".",".","."],[".",".",".",".",".",".",".",".",".",".",".",".",".",".",".",".",".",".",".",".",".",".",".",".",".",".",".",".",".",".",".","."],[".",".",".",".",".",".",".",".",".",".",".",".",".",".",".",".",".",".",".",".",".",".",".",".",".",".",".",".",".",".",".","."],[".",".",".",".",".",".",".",".",".",".",".",".",".",".",".",".",".",".",".",".",".",".",".",".",".",".",".",".",".",".",".","."],[".",".",".",".",".",".",".",".",".",".",".",".",".",".",".",".",".",".",".",".",".",".",".",".",".",".",".",".",".",".",".","."]]],"numberofstrings":6,"notes":["D","A","F","C","G","D"],"capo":0,"stringnotes":["D3","A2","F2","C2","G1","D1"],"comments":["Stave 1:","Stave 2:","Stave 3:","Stave 4:","Stave 5:","Stave 6:","Stave 7:","Stave 8:","Stave 9:","Stave 10:","Stave 11:","Stave 12:","Stave 13:"],"timing":[["W","W",null,"W","W","W","W","W","W","W","W",null,"W",null,"W",null,"W","W","W","W","W","W","W","W"],["W","W",null,"W","W","W","W","W","W","W","W",null,"W",null,"W",null,"W","W","W","W","W","W","W","W"],["W",null,null,"W","W",null,"W","W","W","W",null,"W",null,"W",null,"W",null,"W",null,"W",null,"W",null,"W",null,"W",null,"W",null,"W",null,"W",null,"W",null,"W",null,"W",null,"W",null,"W",null,"W",null,"W",null,"W",null,"W"],["W","W",null,null,"W","W","W","W","W",null,null,"W","W","W","W","W",null,null,"W","W","W","W","W",null,null,"W","W","W","W","W","W","W","W"],[null,null,"W",null,"W",null,"W",null,"W",null,"W",null,"W",null,"W",null,"W",null,"W",null,"W",null,"W",null,"W",null,null,"W",null,"W",null,"W",null,"W",null,"W",null,"W",null,"W",null,"W",null,"W",null,"W",null,"W",null,"W"],["W","W","W","W","W"],["W","W",null,null,"W"],[null,"W","W",null,"W",null,"W",null,"W",null,"W",null,"W",null,"W",null,"W",null,"W",null,"W",null,"W",null,"W",null,"W",null,"W",null,"W",null,"W",null,"W",null,"W",null,"W",null,"W",null,"W",null,"W",null,"W",null,"W",null,"W",null,"W",null,"W",null,"W",null,"W",null,"W",null,"W",null,"W"],[null,null,"W",null,"W",null,"W",null,"W",null,"W",null,"W",null,"W",null,"W",null,"W",null,"W",null,"W",null,"W",null,"W",null,"W",null,"W",null,"W",null,"W",null,"W",null,"W",null,"W",null,"W",null,"W",null,"W",null,"W",null,"W",null,"W",null,"W",null,"W",null,"W",null,"W",null,"W",null,"W",null,"W"],[null,null,"W",null,"W",null,"W",null,"W",null,"W",null,"W",null,"W",null,"W",null,"W",null,"W",null,"W",null,"W",null,"W",null,"W",null,"W",null,"W"],[null,"W","W",null,"W",null,"W",null,"W",null,"W",null,"W",null,"W",null,"W",null,"W",null,"W",null,"W",null,"W",null,"W",null,"W",null,"W",null,"W",null,"W",null,"W",null,"W",null,"W",null,"W",null,"W",null,"W",null,"W",null,"W",null,"W",null,"W",null,"W",null,"W",null,"W",null,"W",null,"W"],[null,"W","W",null,"W",null,"W",null,"W",null,"W",null,"W",null,"W",null,"W",null,"W",null,"W",null,"W",null,"W",null,"W",null,"W",null,"W",null,"W",null,"W",null,"W",null,"W",null,"W",null,"W",null,"W",null,"W",null,"W",null,"W",null,"W",null,"W",null,"W",null,"W",null,"W",null,"W",null,"W"],[null,null,"W",null,"W",null,"W",null,"W",null,"W",null,"W",null,"W",null,"W",null,"W",null,"W",null,"W",null,"W",null,"W",null,"W",null,"W",null,"W"]],"timingvisible":false,"tabcounter":32,"stave":12,"totalstaves":13,"instrument":"6guitar","selectedtuning":"Full Step Down","version":"13"}

Member for

1 month 3 weeks
Submitted by JoelVincent on Tue, 2020-11-24 07:39