sweden minecraft

Chords

01234567891011121314151617181920212223
E
B
G
D
A
E
B
0 1 2 3 4 5 6 7 8 9 10 11 12 13 14 15 16 17 18 19 20 21 22 23
(/) Slide Up  (\) Slide Down  (h) Hammer On  (p) Pull Off  (b) Bend (r) Release (v) Vibrato

Stave 1:

E|-------------------------------------2---------0----------------
B|--------3-----2-----2------------12--3------------2-----3\2--2--
G|--0-----2-----2-----2-----0----------2------------2----------2--
D|--2-----------------0-----2--19------------12----------------0--
A|--------------0-----0-----------------------------0----------0--
D|--2--4--4--9-----5--0-----2--4-------4--9------------5-------0--

Stave 2:

E|-----------------2---------0----------------
B|---------12------3------------2-----3\2--2--
G|--0--19----------2------------2----------2--
D|--2----------19--------12----------------0--
A|------------------------------0----------0--
D|--2------4-------4--9------------5-------0--

							http://www.guitartabcreator.com
Instruments
{"strings":[[[".",".",".",".",".",".",".","_",".",".",".",2,".",".",0,".",".",".",".",".","."],[".",".",3,".",2,".",2,"_",".",".",12,3,".",".",".",2,".",3,"\\",2,2],[0,".",2,".",2,".",2,"_",0,".",".",2,".",".",".",2,".",".",".",".",2],[2,".",".",".",".",".",0,"_",2,19,".",".",".",12,".",".",".",".",".",".",0],[".",".",".",".",0,".",0,"_",".",".",".",".",".",".",".",0,".",".",".",".",0],[2,4,4,9,".",5,0,"_",2,4,".",4,9,".",".",".",5,".",".",".",0]],[[".",".",".",".",2,".",".",0,".",".",".",".",".","."],[".",".",12,".",3,".",".",".",2,".",3,"\\",2,2],[0,19,".",".",2,".",".",".",2,".",".",".",".",2],[2,".",".",19,".",".",12,".",".",".",".",".",".",0],[".",".",".",".",".",".",".",".",0,".",".",".",".",0],[2,".",4,".",4,9,".",".",".",5,".",".",".",0]]],"numberofstrings":6,"notes":["E","B","G","D","A","D"],"capo":0,"stringnotes":["E3","B2","G2","D2","A1","D1"],"comments":["Stave 1:","Stave 2:"],"timing":[["W","W","W","W","W","W","W",null,"W","W","W","W","W","W","W","W","W","W",null,"W","W"],["W","W","W","W","W","W","W","W","W","W","W",null,"W","W"]],"timingvisible":false,"tabcounter":13,"stave":1,"totalstaves":2,"instrument":"6guitar","selectedtuning":"Drop D","version":"13"}

Member for

2 years 3 months
Submitted by Joelious on Wed, 2020-10-07 22:23