finding way

01234567891011121314151617181920212223
E
B
G
D
A
E
B
0 1 2 3 4 5 6 7 8 9 10 11 12 13 14 15 16 17 18 19 20 21 22 23
(/) Slide Up  (\) Slide Down  (h) Hammer On  (p) Pull Off  (b) Bend (r) Release (v) Vibrato

Stave 1:

E|--0------------0--------7--7--9------------------------0----------0------------0------------------------------
B|--3--3--3------2--2--2------------------------------3--3--2-------3--3--3------2--2--2--2--2/3\2-----------0--
G|--4--4--4------3--3--3-----------19--------7--7--5-----5-----5\4--4--4--4------3--3--3------------------2-----
D|-----------19------------------------------7--7--5-------------------------19------------------------0--------
A|--------------------------------------------------------------------------------------------------2-----------
E|--3-----3------2-----2---------------7--7-----7--5-----5----------3-----3------2-----2------------------------

Stave 2:

E|-------------------0------------------0--------------------3-----------------------------0---------------------
B|--12------------------2------------------7--7--------6--5-----5/7\5--3--12------------------2---------------2--
G|---------4------------------3------------7--7--------6--5----------------------4------------------3------------
D|------------12-----------------12-------------------------------------------------12-----------------12--------
A|------5---------------------------------------------------------------------5----------------------------------
E|--3-------------3--------2---------2-----7-----7--7--6--5---------------3-------------3--------2---------2-----

Stave 3:

E|-----------------
B|--0-----------0--
G|-----------2-----
D|--------0--------
A|-----2-----------
E|-----------------

							http://www.guitartabcreator.com
Chords

Instruments
{"strings":[[[0,".",".",".",0,".",".",7,7,9,".",".",".",".",".",".",".",0,".",".",".",".",0,".",".",".",0,".",".",".",".",".",".",".",".",".",".",".","."],[3,3,3,".",2,2,2,".",".",".",".",".",".",".",".",".",3,3,2,".",".",".",3,3,3,".",2,2,2,2,2,"/",3,"\\",2,".",".",".",0],[4,4,4,".",3,3,3,".",".",".",19,".",".",7,7,5,".",5,".",5,"\\",4,4,4,4,".",3,3,3,".",".",".",".",".",".",".",".",2,"."],[".",".",".",19,".",".",".",".",".",".",".",".",".",7,7,5,".",".",".",".",".",".",".",".",".",19,".",".",".",".",".",".",".",".",".",".",0,".","."],[".",".",".",".",".",".",".",".",".",".",".",".",".",".",".",".",".",".",".",".",".",".",".",".",".",".",".",".",".",".",".",".",".",".",".",2,".",".","."],[3,".",3,".",2,".",2,".",".",".",".",7,7,".",7,5,".",5,".",".",".",".",3,".",3,".",2,".",2,".",".",".",".",".",".",".",".",".","."]],[[".",".",".",".",".",0,".",".",".",".",".",0,".",".",".",".",".",".",3,".",".",".",".",".",".",".",".",".",".",".",0,".",".",".",".",".","."],[12,".",".",".",".",".",2,".",".",".",".",".",7,7,".",".",6,5,".",5,"/",7,"\\",5,3,12,".",".",".",".",".",2,".",".",".",".",2],[".",".",4,".",".",".",".",".",3,".",".",".",7,7,".",".",6,5,".",".",".",".",".",".",".",".",".",4,".",".",".",".",".",3,".",".","."],[".",".",".",12,".",".",".",".",".",12,".",".",".",".",".",".",".",".",".",".",".",".",".",".",".",".",".",".",12,".",".",".",".",".",12,".","."],[".",5,".",".",".",".",".",".",".",".",".",".",".",".",".",".",".",".",".",".",".",".",".",".",".",".",5,".",".",".",".",".",".",".",".",".","."],[3,".",".",".",3,".",".",2,".",".",2,".",7,".",7,7,6,5,".",".",".",".",".",".",".",3,".",".",".",3,".",".",2,".",".",2,"."]],[[".",".",".",".","."],[0,".",".",".",0],[".",".",".",2,"."],[".",".",0,".","."],[".",2,".",".","."],[".",".",".",".","."]]],"numberofstrings":6,"notes":["E","B","G","D","A","E","B"],"capo":0,"stringnotes":["E4","B3","G3","D3","A2","E2"],"comments":["Stave 1:","Stave 2:","Stave 3:"],"timing":[["W","W","W","W","W","W","W","W","W","W","W","W","W","W","W","W","W","W","W","W",null,"W","W","W","W","W","W","W","W","W","W",null,"W",null,"W","W","W","W","W"],["W","W","W","W","W","W","W","W","W","W","W","W","W","W","W","W","W","W","W","W",null,"W",null,"W","W","W","W","W","W","W","W","W","W","W","W","W","W"],["W","W","W","W","W"]],"timingvisible":false,"tabcounter":5,"stave":2,"totalstaves":3,"instrument":"6guitar","selectedtuning":"6_standard","version":"13"}

Member for

2 years 11 months
Submitted by Joelious on Wed, 2021-06-16 17:55