Sound will begin in 5 seconds

Every Little Moment

Chords
01234567891011121314151617181920212223
E
B
G
D
A
E
B
0 1 2 3 4 5 6 7 8 9 10 11 12 13 14 15 16 17 18 19 20 21 22 23
Song Science #1: How Pros Use 6 Chords to Write Hit Songs
(/) Slide Up  (\) Slide Down  (h) Hammer On  (p) Pull Off  (b) Bend (r) Release (v) Vibrato

Stave 1:

E|--------------------------------------------------------------------------
B|--------------------------------------------------------------------------
G|--------------4--------------4----6--------------4--------------4----2----
D|----6----2----4----6----2----4----6----6----2----4----6----2----4----2----
A|----6----2----2----6----2----2----4----6----2----2----6----2----2----0----
E|----4----0---------4----0--------------4----0---------4----0--------------

Stave 2:

E|--------------------------------------------
B|----5----5---------5----5---------5----5----
G|----6----6---------6----6---------6----6----
D|----6----6----2----6----6----2----6----6----
A|----4---------2----4---------2----4---------
E|---------5----0---------5----0---------5----

Stave 3:

E|-------------7------------------------------------------------------9--------------------------------
B|-------10----9----7----10----10---------------------9----7----10---------10----------------9----7----
G|-------11----9----8----11----------11---------------9----8----11---------------11----------9----8----
D|-------11----9----9----11----------------11---------9----9----11---------------------11----9----9----
A|-------9-----7----7----9-----------------------9----7----7----9----------------------------7----7----
E|-----------------------------------------------------------------------------------------------------

Stave 4:

E|---------
B|----5----
G|----6----
D|----7----
A|----0----
E|---------

Stave 5:

E|------------------------------------------------------------------
B|----5----5---------10----5----5---------5----5---------10----5----
G|----6----6----9----11----6----6---------6----6----9----11----6----
D|----6----6----9----11----6----6----2----6----6----9----11----6----
A|----4---------7----9-----4---------2----4---------7----9-----4----
E|---------5--------------------5----0---------5--------------------

http://www.guitartabcreator.com
Guitar Tab Creator is intended to store guitar tab created through the tool. It currently does not support in-line text editing. Any text you place in here will be lost. If you need to comment on your tab, please use the "Tab Notes" section located below.