Sound will begin in 5 seconds

Best Days

Chords
01234567891011121314151617181920212223
E
B
G
D
A
E
B
0 1 2 3 4 5 6 7 8 9 10 11 12 13 14 15 16 17 18 19 20 21 22 23
Song Science #1: How Pros Use 6 Chords to Write Hit Songs
(/) Slide Up  (\) Slide Down  (h) Hammer On  (p) Pull Off  (b) Bend (r) Release (v) Vibrato

Stave 1:

E|------------
B|--0---5--0--
G|--11--6--8--
D|--11--7--9--
A|--9---0--x--
E|--0------7--

Stave 2:

E|-----------------
B|--5--0--5--0--0--
G|--6--8--6--8--8--
D|--7--9--7--9--9--
A|--0--x--0--x--9--
E|-----7-----7--7--

Stave 3:

E|----------------------------------------------------------------------------------------------------
B|--------------12--------------------------12-----------------------9--------------------7-----------
G|------13----------13------13------13----------13------13-----9--------9-----9-----9--------9-----9--
D|--11------11----------11------11------11----------11------7-----7--------7-----6-----6--------6-----
A|----------------------------------------------------------------------------------------------------
E|----------------------------------------------------------------------------------------------------

Stave 4:

E|--4--0--0--
B|--5--0--0--
G|--6--2--1--
D|--6--2--2--
A|--4--0--2--
E|--------0--

Stave 5:

E|------------------16--14--14--12----------12--11--12--11--------------------
B|--17--16--17--19------------------12--14------------------12--10--9---------
G|---------------------------------------------------------------------9--11--
D|----------------------------------------------------------------------------
A|----------------------------------------------------------------------------
E|----------------------------------------------------------------------------

Stave 6:

E|---------------------------------------------------------------------------------------------
B|----------12----------12----------12---------------------12----------12----------12----------
G|--11--13------11--13------11--13------11--9--11--11--13------11--13------11--13------13--13--
D|---------------------------------------------------------------------------------------------
A|---------------------------------------------------------------------------------------------
E|---------------------------------------------------------------------------------------------

Stave 7:

E|---------------------------------------------------
B|--12--10--9--10-------------------------12---------
G|-----------------9--11--14--13--11--13-------------
D|--------------------------------------------9--11--
A|---------------------------------------------------
E|---------------------------------------------------

Stave 8:

E|----------------------0--0----------------------0-------------------
B|----------------------0--0----------------------0-------------------
G|--11--13--11--13--16--6--8--11--13--11--13--16--6--13--11--9--8--9--
D|--x---x---x---x---x---x--x------------------------------------------
A|--9---11--9---11--14--4--6--9---11--9---11--14--4--11--9---7--6--7--
E|--0---0---0---0---0---0--0--0---0---0---0---0---0--0---0---0--0--0--

Stave 9:

E|--0--0--
B|--0--0--
G|--3--6--
D|--4--7--
A|--4--7--
E|--2--5--

http://www.guitartabcreator.com
Guitar Tab Creator is intended to store guitar tab created through the tool. It currently does not support in-line text editing. Any text you place in here will be lost. If you need to comment on your tab, please use the "Tab Notes" section located below.