Band On The Run

Chords

01234567891011121314151617181920212223
E
B
G
D
A
E
B
0 1 2 3 4 5 6 7 8 9 10 11 12 13 14 15 16 17 18 19 20 21 22 23
(/) Slide Up  (\) Slide Down  (h) Hammer On  (p) Pull Off  (b) Bend (r) Release (v) Vibrato

Stave 1:

E|--10--10--10--5--5--5-----
B|--10--12--10--5--7--5--7--
G|-----------------------6--
D|--------------------------
A|--------------------------
E|--------------------------



E|--14--12--10--12--
B|--15--12--10--12--
G|------------------
D|------------------
A|------------------
E|------------------

Stave 3:

E|--10--12--10--10--10------
B|--10--10--10--12--10--10--
G|----------------------11--
D|--------------------------
A|--------------------------
E|--------------------------

Stave 4:

E|--15--14--10--12--
B|--15--14--10--12--
G|------------------
D|------------------
A|------------------
E|------------------

Stave 5:

E|--15--14--12--10-----10--12--15-----
B|--15--14--12--10-----10--12--15-----
G|------------------------------------
D|------------------------------------
A|------------------------------------
E|------------------------------------

Stave 6:

E|--14--14h15p14--12h14p12--10h12p10--9h10p9\7--5h7p5\2--
B|-------------------------------------------------------
G|-------------------------------------------------------
D|-------------------------------------------------------
A|-------------------------------------------------------
E|-------------------------------------------------------

Stave 7:

E|-------------------------------------------------------------
B|-------------------------------------------------------------
G|-------------------------------------------------------------
D|-----10--10--10--9--9--7--7-----12--12--12--12--12--9--9--9--
A|--0--0---0---0---0--0--0--0-----0---0---0---0---0---0--0--0--
E|-------------------------------------------------------------

Stave 8:

E|-----------------------------
B|-----------------------------
G|-----------------------------
D|--------------2--5--7--7--5--
A|--------3--5--------5--5--3--
E|--3--5-----------------------

							http://www.guitartabcreator.com
Instruments
{"title":"Band On The Run","strings":[[[10,10,10,5,5,5,"."],[10,12,10,5,7,5,7],[".",".",".",".",".",".",6],[".",".",".",".",".",".","."],[".",".",".",".",".",".","."],[".",".",".",".",".",".","."]],[[14,12,10,12],[15,12,10,12],[".",".",".","."],[".",".",".","."],[".",".",".","."],[".",".",".","."]],[[10,12,10,10,10,"."],[10,10,10,12,10,10],[".",".",".",".",".",11],[".",".",".",".",".","."],[".",".",".",".",".","."],[".",".",".",".",".","."]],[[15,14,10,12],[15,14,10,12],[".",".",".","."],[".",".",".","."],[".",".",".","."],[".",".",".","."]],[[15,14,12,10,"_",10,12,15,"_"],[15,14,12,10,"_",10,12,15,"_"],[".",".",".",".","_",".",".",".","_"],[".",".",".",".","_",".",".",".","_"],[".",".",".",".","_",".",".",".","_"],[".",".",".",".","_",".",".",".","_"]],[[14,14,"h",15,"p",14,12,"h",14,"p",12,10,"h",12,"p",10,9,"h",10,"p",9,"\\",7,5,"h",7,"p",5,"\\",2],[".",".",".",".",".",".",".",".",".",".",".",".",".",".",".",".",".",".",".",".",".",".",".",".",".",".",".",".",".","."],[".",".",".",".",".",".",".",".",".",".",".",".",".",".",".",".",".",".",".",".",".",".",".",".",".",".",".",".",".","."],[".",".",".",".",".",".",".",".",".",".",".",".",".",".",".",".",".",".",".",".",".",".",".",".",".",".",".",".",".","."],[".",".",".",".",".",".",".",".",".",".",".",".",".",".",".",".",".",".",".",".",".",".",".",".",".",".",".",".",".","."],[".",".",".",".",".",".",".",".",".",".",".",".",".",".",".",".",".",".",".",".",".",".",".",".",".",".",".",".",".","."]],[[".",".",".",".",".",".",".",".","_",".",".",".",".",".",".",".","."],[".",".",".",".",".",".",".",".","_",".",".",".",".",".",".",".","."],[".",".",".",".",".",".",".",".","_",".",".",".",".",".",".",".","."],[".",10,10,10,9,9,7,7,"_",12,12,12,12,12,9,9,9],[0,0,0,0,0,0,0,0,"_",0,0,0,0,0,0,0,0],[".",".",".",".",".",".",".",".","_",".",".",".",".",".",".",".","."]],[[".",".",".",".",".",".",".",".","."],[".",".",".",".",".",".",".",".","."],[".",".",".",".",".",".",".",".","."],[".",".",".",".",2,5,7,7,5],[".",".",3,5,".",".",5,5,3],[3,5,".",".",".",".",".",".","."]]],"numberofstrings":6,"notes":["E","B","G","D","A","E","B"],"capo":0,"stringnotes":["E4","B3","G3","D3","A2","E2"],"comments":["Stave 1:","","Stave 3:","Stave 4:","Stave 5:","Stave 6:","Stave 7:","Stave 8:"],"timing":[["W","W","W","W","W","W","W"],["W","W","W","W"],["W","W","W","W","W","W"],["W","W","W","W"],["W","W","W","W","W","W","W","W"],["W","W",null,"W",null,"W","W",null,"W",null,"W","W",null,"W",null,"W","W",null,"W",null,"W",null,"W","W",null,"W",null,"W",null,"W"],["W","W","W","W","W","W","W","W",null,"W","W","W","W","W","W","W","W"],["W","W","W","W","W","W","W","W","W"]],"timingvisible":false,"tabcounter":8,"stave":7,"totalstaves":8,"instrument":"6guitar","selectedtuning":"6_standard","version":"13"}

Member for

3 years 11 months
Submitted by Joebayley on Wed, 2020-04-01 05:59