great gig in the sky

Chords

01234567891011121314151617181920212223
E
B
G
D
A
E
B
0 1 2 3 4 5 6 7 8 9 10 11 12 13 14 15 16 17 18 19 20 21 22 23
(/) Slide Up  (\) Slide Down  (h) Hammer On  (p) Pull Off  (b) Bend (r) Release (v) Vibrato

Stave 1:

E|--------------------------------------------------------------------------10------8----------5-----5-----3-----1-----3-----3-----1-----1-----0-----0-----0-----0----------
B|--7-----7-----7-----7-----10------------------------------11------11------10------10--11--6--6-----6-----3-----1-----3-----3-----3-----3-----3-----3-----3-----3----------
G|--7-----7-----7-----7-----10------10--10--10--10--10--10--10------10----------------------------5-----5-----3-----2-----3-----3-----3-----3-----3-----0-----0-----0h3-----
D|-----9-----9-----9-----9------10--9---10--12--10--9---10------12------12------12------------------------------------------------------------------------------------------
A|--------------------------------------------------------------------------------------------------------------------------------------------------------------------------
E|--------------------------------------------------------------------------------------------------------------------------------------------------------------------------

Stave 2:

E|--3-----3-----1-----1-----0-----------------------------------------0-----
B|--3-----3-----3-----3-----3-----3-----1-----1-----------------1-----1-----
G|-----3-----3-----3-----3-----3--3-----3-----3--3--2-----2-----2-----------
D|-----------------------------------3-----2-----2--3-----3--------3-----3--
A|-----------------------------------------------------3-----3--------------
E|--------------------------------------------------------------------------

							http://www.guitartabcreator.com
Instruments
{"strings":[[[".",".",".",".",".",".",".",".",".",".",".",".",".",".",".",".",".",".",".",".",10,".",8,".",".",5,".",5,".",3,".",1,".",3,".",3,".",1,".",1,".",0,".",0,".",0,".",0,".",".",".","."],[7,".",7,".",7,".",7,".",10,".",".",".",".",".",".",".",11,".",11,".",10,".",10,11,6,6,".",6,".",3,".",1,".",3,".",3,".",3,".",3,".",3,".",3,".",3,".",3,".",".",".","."],[7,".",7,".",7,".",7,".",10,".",10,10,10,10,10,10,10,".",10,".",".",".",".",".",".",".",5,".",5,".",3,".",2,".",3,".",3,".",3,".",3,".",3,".",0,".",0,".",0,"h",3,"."],[".",9,".",9,".",9,".",9,".",10,9,10,12,10,9,10,".",12,".",12,".",12,".",".",".",".",".",".",".",".",".",".",".",".",".",".",".",".",".",".",".",".",".",".",".",".",".",".",".",".",".","."],[".",".",".",".",".",".",".",".",".",".",".",".",".",".",".",".",".",".",".",".",".",".",".",".",".",".",".",".",".",".",".",".",".",".",".",".",".",".",".",".",".",".",".",".",".",".",".",".",".",".",".","."],[".",".",".",".",".",".",".",".",".",".",".",".",".",".",".",".",".",".",".",".",".",".",".",".",".",".",".",".",".",".",".",".",".",".",".",".",".",".",".",".",".",".",".",".",".",".",".",".",".",".",".","."]],[[3,".",3,".",1,".",1,".",0,".",".",".",".",".",".",".",".",".",".",".",".",".",0,"."],[3,".",3,".",3,".",3,".",3,".",3,".",1,".",1,".",".",".",".",".",1,".",1,"."],[".",3,".",3,".",3,".",3,".",3,3,".",3,".",3,3,2,".",2,".",2,".",".","."],[".",".",".",".",".",".",".",".",".",".",".",3,".",2,".",2,3,".",3,".",".",3,".",3],[".",".",".",".",".",".",".",".",".",".",".",".",".",".",".",".",".",3,".",3,".",".",".","."],[".",".",".",".",".",".",".",".",".",".",".",".",".",".",".",".",".",".",".",".",".",".",".","."]]],"numberofstrings":6,"notes":["E","B","G","D","A","E","B"],"capo":0,"stringnotes":["E4","B3","G3","D3","A2","E2"],"comments":["Stave 1:","Stave 2:"],"timing":[[null,null,null,null,null,null,null,null,null,"W","W","W","W","W","W","W","W","W","W","W","W","W","W","W","W","W","W","W","W","W","W","W","W","W","W","W","W","W","W","W","W","W","W","W","W","W","W","W","W",null,"W"],["W","W","W","W","W","W","W","W","W","W","W","W","W","W","W","W","W","W","W","W","W","W","W","W"]],"timingvisible":false,"tabcounter":24,"stave":1,"totalstaves":2,"instrument":"6guitar","selectedtuning":"6_standard","version":"13"}

Member for

1 week
Submitted by joebam on Tue, 2020-06-30 16:32