Gabi - Treino Penta Am (Lá menor)

Chords

01234567891011121314151617181920212223
E
B
G
D
A
E
B
0 1 2 3 4 5 6 7 8 9 10 11 12 13 14 15 16 17 18 19 20 21 22 23
(/) Slide Up  (\) Slide Down  (h) Hammer On  (p) Pull Off  (b) Bend (r) Release (v) Vibrato

Stave 1:

G|--------------------5--7--
D|--------------5--7--------
A|--------5--7--------------
E|--5--8--------------------
B|--------------------------

Stave 2:

G|--------------------------------------------------5-----5--7--
D|--------------------------------5-----5--7--5--7-----7--------
A|--------------5-----5--7--5--7-----7--------------------------
E|--5--8--5--8-----8--------------------------------------------
B|--------------------------------------------------------------

							http://www.guitartabcreator.com
Instruments
{"title":"","strings":[[[".",".",".",".",".",".",5,7],[".",".",".",".",5,7,".","."],[".",".",5,7,".",".",".","."],[5,8,".",".",".",".",".","."],[".",".",".",".",".",".",".","."]],[[".",".",".",".",".",".",".",".",".",".",".",".",".",".",".",".",5,".",5,7],[".",".",".",".",".",".",".",".",".",".",5,".",5,7,5,7,".",7,".","."],[".",".",".",".",5,".",5,7,5,7,".",7,".",".",".",".",".",".",".","."],[5,8,5,8,".",8,".",".",".",".",".",".",".",".",".",".",".",".",".","."],[".",".",".",".",".",".",".",".",".",".",".",".",".",".",".",".",".",".",".","."]]],"numberofstrings":5,"notes":["G","D","A","E","B"],"capo":0,"stringnotes":["G2","D2","A1","E1","B0"],"comments":["Stave 1:","Stave 2:"],"timing":[["W","W","W","W","W","W","W","W"],["W","W","W","W","W","W","W","W","W","W","W","W","W","W","W","W","W","W","W","W"]],"timingvisible":false,"tabcounter":20,"stave":1,"totalstaves":2,"instrument":"5bass","selectedtuning":"5bass_standard","version":"13"}

Member for

7 months 1 week
Submitted by joaovitorfrv on Wed, 2020-04-15 17:22