Saint-Groove - New Groove

Chords

01234567891011121314151617181920212223
E
B
G
D
A
E
B
0 1 2 3 4 5 6 7 8 9 10 11 12 13 14 15 16 17 18 19 20 21 22 23
(/) Slide Up  (\) Slide Down  (h) Hammer On  (p) Pull Off  (b) Bend (r) Release (v) Vibrato

Stave 1:

E|--------2--
B|--3--3--3--
G|--4--3--2--
D|--4--2--4--
A|--------2--
E|--3--2-----

Stave 2:

E|------10------
B|--7---11--10--
G|--7---9---11--
D|--9-------9---
A|--10--9-------
E|--------------

Stave 3:

E|---------------------------
B|-----7--8--7h8p7-----------
G|--9---------------9--7-----
D|------------------------9--
A|---------------------------
E|---------------------------

Stave 4:

E|---------------------------
B|---------------------------
G|---------------------------
D|-----4--5--4h5p4-----------
A|--7---------------7--5-----
E|------------------------7--

Stave 5:

E|---------------------|-------------------|------------------------------------
B|---------------------|-------------------|------------------------------------
G|---------------------|-------------------|------------------------------------
D|--------4--5--4h5p4--|-----4--5p4--------|-----4h5p4-----4--------------------
A|--7--7---------------|--7----------5-----|--7---------7-----5-----------5--5--
E|---------------------|----------------7--|---------------------7--7--7--------

							http://www.guitartabcreator.com
Instruments
{"title":"","strings":[[[".",".",2],[3,3,3],[4,3,2],[4,2,4],[".",".",2],[3,2,"."]],[[".",10,"."],[7,11,10],[7,9,11],[9,".",9],[10,9,"."],[".",".","."]],[[".",".",".",".",".",".",".",".",".",".","."],[".",7,8,7,"h",8,"p",7,".",".","."],[9,".",".",".",".",".",".",".",9,7,"."],[".",".",".",".",".",".",".",".",".",".",9],[".",".",".",".",".",".",".",".",".",".","."],[".",".",".",".",".",".",".",".",".",".","."]],[[".",".",".",".",".",".",".",".",".",".","."],[".",".",".",".",".",".",".",".",".",".","."],[".",".",".",".",".",".",".",".",".",".","."],[".",4,5,4,"h",5,"p",4,".",".","."],[7,".",".",".",".",".",".",".",7,5,"."],[".",".",".",".",".",".",".",".",".",".",7]],[[".",".",".",".",".",".",".",".",".","|",".",".",".",".",".",".",".","|",".",".",".",".",".",".",".",".",".",".",".",".",".","."],[".",".",".",".",".",".",".",".",".","|",".",".",".",".",".",".",".","|",".",".",".",".",".",".",".",".",".",".",".",".",".","."],[".",".",".",".",".",".",".",".",".","|",".",".",".",".",".",".",".","|",".",".",".",".",".",".",".",".",".",".",".",".",".","."],[".",".",4,5,4,"h",5,"p",4,"|",".",4,5,"p",4,".",".","|",".",4,"h",5,"p",4,".",4,".",".",".",".",".","."],[7,7,".",".",".",".",".",".",".","|",7,".",".",".",".",5,".","|",7,".",".",".",".",".",7,".",5,".",".",".",5,5],[".",".",".",".",".",".",".",".",".","|",".",".",".",".",".",".",7,"|",".",".",".",".",".",".",".",".",".",7,7,7,".","."]]],"numberofstrings":6,"notes":["E","B","G","D","A","E","B"],"capo":0,"stringnotes":["E4","B3","G3","D3","A2","E2"],"comments":["Stave 1:","Stave 2:","Stave 3:","Stave 4:","Stave 5:"],"timing":[["W","W","W"],["W","W","W","W"],["W","W","W","W",null,"W",null,"W","W","W","W"],["W","W","W","W",null,"W",null,"W","W","W","W"],["W","W","W","W","W",null,"W",null,"W",null,"W","W","W",null,"W","W","W",null,"W","W",null,"W",null,"W","W","W","W","W","W","W","W","W"]],"timingvisible":false,"tabcounter":32,"stave":4,"totalstaves":5,"instrument":"6guitar","selectedtuning":"6_standard","version":"13"}

Member for

1 year 4 months
Submitted by JoãoAlex on Thu, 2019-07-25 09:54