Pixinguinha - Carinhoso (CAVACO)

Chords

01234567891011121314151617181920212223
E
B
G
D
A
E
B
0 1 2 3 4 5 6 7 8 9 10 11 12 13 14 15 16 17 18 19 20 21 22 23
(/) Slide Up  (\) Slide Down  (h) Hammer On  (p) Pull Off  (b) Bend (r) Release (v) Vibrato

Stave 1:

D|--------------------------------
B|--------------------------------
G|--2--0-----2--------2--0-----2--
D|--------3-----------------3-----

Stave 2:

D|-----------------------------2--------2--1--2--5--3--------5--------------3--------------------------------------------------
B|--1--0-----1--------1--0-----------------------------5--3-----3-----3--------------------3-----------------------------------
G|--------2-----------------2--------------------------------------5-----5-----5--3--3--2-----2--0--2--------------0-----0-----
D|-----------------------------------------------------------------------------------------------------3--2-----------3-----3--

Stave 3:

D|--2--3--2--0-----------------------------------------------------------------------2--0--------------------0--2--0-----------------
B|--------------1--3--1--0-----------------------------------------------------1--3--------1-----------0--1--------------1--0--------
G|--------------------------2--4--2--0--------2--4--5--4--2--4--2--------2--4-----------------2--0--2-----------------2--------2--0--
D|--------------------------------------3--5-----------------------2-----------------------------------------------------------------

Stave 4:

D|--------0--2--3-----2--0--------------------2--------------------------
B|--1--2--------------------1--------------0-----3--1--------------------
G|-----------------------------2--------1--------------3--2--0--2--3--2--
D|--------------------------------3--2-----------------------------------

Stave 5:

D|--------3--2--3--2-----------------------------------------3--3-----------------------
B|--------------------3-----1--3--1--------------------1--2-----------------1-----------
G|--1--2-----------------------------3--2--3--2--0--3--------------2--1--2-----0--2-----
D|-----------------------------------------------------------------------------------3--

							http://www.guitartabcreator.com
Instruments
{"strings":[[[".",".",".",".","_","_",".",".",".","."],[".",".",".",".","_","_",".",".",".","."],[2,0,".",2,"_","_",2,0,".",2],[".",".",3,".","_","_",".",".",3,"."]],[[".",".",".",".","_","_",".",".",".",2,"_","_",2,1,2,5,3,".",".",5,".",".",".",".",3,".",".",".",".",".",".",".",".",".",".","_","_",".",".",".","."],[1,0,".",1,"_","_",1,0,".",".","_","_",".",".",".",".",".",5,3,".",3,".",3,".",".",".",".",".",".",3,".",".",".",".",".","_","_",".",".",".","."],[".",".",2,".","_","_",".",".",2,".","_","_",".",".",".",".",".",".",".",".",".",5,".",5,".",5,3,3,2,".",2,0,2,".",".","_","_",0,".",0,"."],[".",".",".",".","_","_",".",".",".",".","_","_",".",".",".",".",".",".",".",".",".",".",".",".",".",".",".",".",".",".",".",".",".",3,2,"_","_",".",3,".",3]],[[2,3,2,0,".",".",".",".",".",".",".",".",".",".",".",".",".",".",".",".",".",".","_",".",".",".",".",2,0,".",".",".",".",".",".",0,2,0,".",".",".",".","."],[".",".",".",".",1,3,1,0,".",".",".",".",".",".",".",".",".",".",".",".",".",".","_",".",".",1,3,".",".",1,".",".",".",0,1,".",".",".",".",1,0,".","."],[".",".",".",".",".",".",".",".",2,4,2,0,".",".",2,4,5,4,2,4,2,".","_",2,4,".",".",".",".",".",2,0,2,".",".",".",".",".",2,".",".",2,0],[".",".",".",".",".",".",".",".",".",".",".",".",3,5,".",".",".",".",".",".",".",2,"_",".",".",".",".",".",".",".",".",".",".",".",".",".",".",".",".",".",".",".","."]],[[".",".",0,2,3,"_",2,0,".",".",".",".",".",".",2,".",".",".",".",".",".",".","."],[1,2,".",".",".","_",".",".",1,".",".",".",".",0,".",3,1,".",".",".",".",".","."],[".",".",".",".",".","_",".",".",".",2,".",".",1,".",".",".",".",3,2,0,2,3,2],[".",".",".",".",".","_",".",".",".",".",3,2,".",".",".",".",".",".",".",".",".",".","."]],[[".",".",3,2,3,2,".","_",".",".",".",".",".",".",".",".",".",".",".",3,3,".",".",".",".",".",".","."],[".",".",".",".",".",".",3,"_",1,3,1,".",".",".",".",".",".",1,2,".",".",".",".",".",1,".",".","."],[1,2,".",".",".",".",".","_",".",".",".",3,2,3,2,0,3,".",".",".",".",2,1,2,".",0,2,"."],[".",".",".",".",".",".",".","_",".",".",".",".",".",".",".",".",".",".",".",".",".",".",".",".",".",".",".",3]]],"numberofstrings":4,"notes":["D","B","G","D"],"capo":0,"stringnotes":["D5","B1","G1","D1"],"comments":["Stave 1:","Stave 2:","Stave 3:","Stave 4:","Stave 5:"],"timing":[["W","W","W","W","W","W","W","W","W","W"],["W","W","W","W",null,null,"W","W","W","W",null,null,"W","W","W","W","W","W","W","W","W","W","W","W","W","W","W","W","W","W","W","W","W","W","W",null,null,"W","W","W","W"],["W","W","W","W","W","W","W","W","W","W","W","W","W","W","W","W","W","W","W","W","W","W",null,"W","W","W","W","W","W","W","W","W","W","W","W","W","W","W","W","W","W","W","W"],["W","W","W","W","W",null,"W","W","W","W","W","W","W","W","W","W","W","W","W","W","W","W","W"],["W","W","W","W","W","W","W",null,"W","W","W","W","W","W","W","W","W","W","W","W","W","W","W","W","W","W","W","W"]],"timingvisible":false,"tabcounter":28,"stave":4,"totalstaves":5,"instrument":"mandolin","selectedtuning":"mandolin","version":"13"}

Member for

1 year 4 months
Submitted by JoãoAlex on Thu, 2020-04-23 07:58