Introdução de Juventude Transviada (Digitação Alternativa)

Chords

01234567891011121314151617181920212223
E
B
G
D
A
E
B
0 1 2 3 4 5 6 7 8 9 10 11 12 13 14 15 16 17 18 19 20 21 22 23
(/) Slide Up  (\) Slide Down  (h) Hammer On  (p) Pull Off  (b) Bend (r) Release (v) Vibrato

Stave 1:

E|---------------------------------------------------------------------------------------------------------------
B|---------------------------------------------------------------------------------------------8--7--7-----------
G|-----------------------------7-----7---------7/9------------------------------------------9-----------7--------
D|--9----------------7--9--10-----------10--9-------10--7-----------------------9-----7--7-----------------9--7--
A|---------7--9--11----------------------------------------7--10--9h10p9-----9-----9-----------------------------
E|-----10--------------------------------------------------------------------------------------------------------

Stave 2:

E|-----------------------------------------------------------------------------------------------7-------------------------
B|--------------------------8------------------8--7-------------------------------------------------10--7------------------
G|-----------------------------9---------------------7---------------7--8--9-----9--11-----7---------------7---------------
D|--------------------------------10--9--8--------------9-------------------------------------9---------------9------------
A|------7------7--10--8------------------------------------10--9-------------------------------------------------9------9--
E|--10-----10-------------------------------------------------------------------------------------------------------10-----

							http://www.guitartabcreator.com
Instruments
{"strings":[[[".",".",".",".",".",".",".",".",".","_",".",".",".",".",".",".",".",".",".",".",".",".",".",".",".","_",".",".",".",".",".",".",".",".",".",".",".","."],[".",".",".",".",".",".",".",".",".","_",".",".",".",".",".",".",".",".",".",".",".",".",".",".",".","_",".",".",".",".",".",".",8,7,7,".",".","."],[".",".",".",".",".",".",".",".",7,"_",7,".",".",7,"/",9,".",".",".",".",".",".",".",".",".","_",".",".",".",".",".",9,".",".",".",7,".","."],[9,".",".",".",".",7,9,10,".","_",".",10,9,".",".",".",10,7,".",".",".",".",".",".",".","_",".",9,".",7,7,".",".",".",".",".",9,7],[".",".",7,9,11,".",".",".",".","_",".",".",".",".",".",".",".",".",7,10,9,"h",10,"p",9,"_",9,".",9,".",".",".",".",".",".",".",".","."],[".",10,".",".",".",".",".",".",".","_",".",".",".",".",".",".",".",".",".",".",".",".",".",".",".","_",".",".",".",".",".",".",".",".",".",".",".","."]],[[".",".",".",".",".",".","_",".",".",".",".",".","_",".",".",".",".",".",".","_",".",".",".","_",".",".","_",".",".",7,".",".",".",".",".",".","."],[".",".",".",".",".",".","_",8,".",".",".",".","_",8,7,".",".",".",".","_",".",".",".","_",".",".","_",".",".",".",10,7,".",".",".",".","."],[".",".",".",".",".",".","_",".",9,".",".",".","_",".",".",7,".",".",".","_",7,8,9,"_",9,11,"_",7,".",".",".",".",7,".",".",".","."],[".",".",".",".",".",".","_",".",".",10,9,8,"_",".",".",".",9,".",".","_",".",".",".","_",".",".","_",".",9,".",".",".",".",9,".",".","."],[".",7,".",7,10,8,"_",".",".",".",".",".","_",".",".",".",".",10,9,"_",".",".",".","_",".",".","_",".",".",".",".",".",".",".",9,".",9],[10,".",10,".",".",".","_",".",".",".",".",".","_",".",".",".",".",".",".","_",".",".",".","_",".",".","_",".",".",".",".",".",".",".",".",10,"."]]],"numberofstrings":6,"notes":["E","B","G","D","A","E","B"],"capo":0,"stringnotes":["E4","B3","G3","D3","A2","E2"],"comments":["Stave 1:","Stave 2:"],"timing":[["W","W","W","W","W","W","W","W","W",null,"W","W","W","W",null,"W","W","W","W","W","W",null,"W",null,"W",null,"W","W","W","W","W","W","W","W","W","W","W","W"],["W","W","W","W","W","W",null,"W","W","W","W","W",null,"W","W","W","W","W","W",null,"W","W","W","W","W","W",null,"W","W","W","W","W","W","W","W","W","W"]],"timingvisible":false,"tabcounter":37,"stave":1,"totalstaves":2,"instrument":"6guitar","selectedtuning":"6_standard","version":"13"}

Member for

1 year 3 months
Submitted by JoãoAlex on Thu, 2020-10-15 11:48