Introdução de Juventude Transviada

Chords

01234567891011121314151617181920212223
E
B
G
D
A
E
B
0 1 2 3 4 5 6 7 8 9 10 11 12 13 14 15 16 17 18 19 20 21 22 23
(/) Slide Up  (\) Slide Down  (h) Hammer On  (p) Pull Off  (b) Bend (r) Release (v) Vibrato

Stave 1:

E|--------------------------------------------------------------------------------------------3--2-----2-----------
B|----------------------------2/3-----2/3--------5-----------------------------------------5--------------3--------
G|--3/4--------------2--4--5---------------5--4-----5--2-----------------------4-----2--2--------------------4--2--
D|----------2--4--6---------------------------------------2--5--4--5--4-----4-----4--------------------------------
A|-------5---------------------------------------------------------------------------------------------------------
E|-----------------------------------------------------------------------------------------------------------------

Stave 2:

E|--------------------------3-----------------3--2-----------------------------------------------7--5-----------------------
B|-----------------------------5--------------------3-----------------------------------3--------------7--------------------
G|--------------------------------5--4--3--------------4-----------------------------------4--------------7--4--------------
D|-----2-----2--5--3--------------------------------------5--4-----------1--2--2--4-----------------------------4-----------
A|--5-----5-----------------------------------------------------------5--------------------------------------------5--------
E|--------------------------------------------------------------------------------------------------------------------------

							http://www.guitartabcreator.com
Instruments
{"strings":[[[".",".",".",".",".",".",".",".",".",".",".",".",".","_",".",".",".",".",".",".",".",".",".",".",".",".",".","_",".",".",".",".",".",".",3,2,"_",2,".",".","."],[".",".",".",".",".",".",".",".",".",".",2,"/",3,"_",2,"/",3,".",".",5,".",".",".",".",".",".",".","_",".",".",".",".",".",5,".",".","_",".",3,".","."],[3,"/",4,".",".",".",".",2,4,5,".",".",".","_",".",".",".",5,4,".",5,2,".",".",".",".",".","_",".",4,".",2,2,".",".",".","_",".",".",4,2],[".",".",".",".",2,4,6,".",".",".",".",".",".","_",".",".",".",".",".",".",".",".",2,5,4,5,4,"_",4,".",4,".",".",".",".",".","_",".",".",".","."],[".",".",".",5,".",".",".",".",".",".",".",".",".","_",".",".",".",".",".",".",".",".",".",".",".",".",".","_",".",".",".",".",".",".",".",".","_",".",".",".","."],[".",".",".",".",".",".",".",".",".",".",".",".",".","_",".",".",".",".",".",".",".",".",".",".",".",".",".","_",".",".",".",".",".",".",".",".","_",".",".",".","."]],[[".",".",".",".",".",".","_","_",3,".",".",".",".","_",3,2,".",".",".",".","_","_",".",".",".",".",".","_",".",".","_",7,5,".",".",".",".",".","_","_"],[".",".",".",".",".",".","_","_",".",5,".",".",".","_",".",".",3,".",".",".","_","_",".",".",".",".",".","_",3,".","_",".",".",7,".",".",".",".","_","_"],[".",".",".",".",".",".","_","_",".",".",5,4,3,"_",".",".",".",4,".",".","_","_",".",".",".",".",".","_",".",4,"_",".",".",".",7,4,".",".","_","_"],[".",2,".",2,5,3,"_","_",".",".",".",".",".","_",".",".",".",".",5,4,"_","_",".",1,2,2,4,"_",".",".","_",".",".",".",".",".",4,".","_","_"],[5,".",5,".",".",".","_","_",".",".",".",".",".","_",".",".",".",".",".",".","_","_",5,".",".",".",".","_",".",".","_",".",".",".",".",".",".",5,"_","_"],[".",".",".",".",".",".","_","_",".",".",".",".",".","_",".",".",".",".",".",".","_","_",".",".",".",".",".","_",".",".","_",".",".",".",".",".",".",".","_","_"]]],"numberofstrings":6,"notes":["E","B","G","D","A","E","B"],"capo":0,"stringnotes":["E4","B3","G3","D3","A2","E2"],"comments":["Stave 1:","Stave 2:"],"timing":[["W",null,"W","W","W","W","W","W","W","W","W",null,"W",null,"W",null,"W","W","W","W","W","W","W","W","W","W","W","W","W","W","W","W","W","W","W","W","W","W","W","W","W"],["W","W","W","W","W","W",null,null,"W","W","W","W","W",null,"W","W","W","W","W","W",null,null,"W","W","W","W","W",null,"W","W",null,"W","W","W","W","W","W","W"]],"timingvisible":false,"tabcounter":40,"stave":1,"totalstaves":2,"instrument":"6guitar","selectedtuning":"6_standard","version":"13"}

Member for

1 year 4 months
Submitted by JoãoAlex on Thu, 2020-10-15 12:16