Gonzaguinha - Lindo Lago Do Amor (Solo de Teclado)

Chords

01234567891011121314151617181920212223
E
B
G
D
A
E
B
0 1 2 3 4 5 6 7 8 9 10 11 12 13 14 15 16 17 18 19 20 21 22 23
(/) Slide Up  (\) Slide Down  (h) Hammer On  (p) Pull Off  (b) Bend (r) Release (v) Vibrato

Stave 1:

E|----------------------------9h10p9----------------6/7--6/7v---------------------------------
B|--8/9--10v--11v--11/12v-------------10------------------------------8/10--8/10--------------
G|----------------------------------------9--9v----------------7--6v--------------6-----------
D|-----------------------------------------------------------------------------------9--7--9--
A|--------------------------------------------------------------------------------------------
E|--------------------------------------------------------------------------------------------

Stave 2:

E|------------------------------------------10--9------------------10--9------9--------------9--10--9--10---------12--12--------
B|------------------10--8--7-----------------------12---------------------12-----9--9--9----------------------------------------
G|--7/9--8--7-----------------9--7/6--7----------------11--11--11------------------------------------------11--9----------11\6--
D|-------------7/8--------------------------------------------------------------------------------------------------------------
A|------------------------------------------------------------------------------------------------------------------------------
E|------------------------------------------------------------------------------------------------------------------------------

Stave 3:

E|--9/10--9/10----------------------------------------------------------------------
B|--------------10h12--10h12--10----------------------------10--8--7----------------
G|--------------------------------7-----7-----8/9--8--7---------------9--7/6--7--7--
D|-----------------------------------9-------------------8--------------------------
A|----------------------------------------------------------------------------------
E|----------------------------------------------------------------------------------

Stave 4:

E|--9--7--7---------------10--9--9----------
B|-----------7--7--7v---------------10------
G|---------------------9----------------9v--
D|------------------------------------------
A|------------------------------------------
E|------------------------------------------

							http://www.guitartabcreator.com
{"strings":[[[".",".",".",".",".",".",".",".",".",".",".","_",9,"h",10,"p",9,".",".",".",".","_",6,"/",7,6,"/",7,"v",".",".",".",".",".",".",".",".",".",".",".",".","."],[8,"/",9,10,"v",11,"v",11,"/",12,"v","_",".",".",".",".",".",10,".",".",".","_",".",".",".",".",".",".",".",".",".",".",8,"/",10,8,"/",10,".",".",".","."],[".",".",".",".",".",".",".",".",".",".",".","_",".",".",".",".",".",".",9,9,"v","_",".",".",".",".",".",".",".",7,6,"v",".",".",".",".",".",".",6,".",".","."],[".",".",".",".",".",".",".",".",".",".",".","_",".",".",".",".",".",".",".",".",".","_",".",".",".",".",".",".",".",".",".",".",".",".",".",".",".",".",".",9,7,9],[".",".",".",".",".",".",".",".",".",".",".","_",".",".",".",".",".",".",".",".",".","_",".",".",".",".",".",".",".",".",".",".",".",".",".",".",".",".",".",".",".","."],[".",".",".",".",".",".",".",".",".",".",".","_",".",".",".",".",".",".",".",".",".","_",".",".",".",".",".",".",".",".",".",".",".",".",".",".",".",".",".",".",".","."]],[[".",".",".",".",".",null,".",".",".",".",".",".",".",".",".",".",".","_",10,9,".",".",".",".",10,9,".",9,".",".",".","_",9,10,9,10,".",".",12,12,".",".","."],[".",".",".",".",".",null,".",".",".",10,8,7,".",".",".",".",".","_",".",".",12,".",".",".",".",".",12,".",9,9,9,"_",".",".",".",".",".",".",".",".",".",".","."],[7,"/",9,8,7,null,".",".",".",".",".",".",9,7,"/",6,7,"_",".",".",".",11,11,11,".",".",".",".",".",".",".","_",".",".",".",".",11,9,".",".",11,"\\",6],[".",".",".",".",".",null,7,"/",8,".",".",".",".",".",".",".",".","_",".",".",".",".",".",".",".",".",".",".",".",".",".","_",".",".",".",".",".",".",".",".",".",".","."],[".",".",".",".",".",null,".",".",".",".",".",".",".",".",".",".",".","_",".",".",".",".",".",".",".",".",".",".",".",".",".","_",".",".",".",".",".",".",".",".",".",".","."],[".",".",".",".",".",null,".",".",".",".",".",".",".",".",".",".",".","_",".",".",".",".",".",".",".",".",".",".",".",".",".","_",".",".",".",".",".",".",".",".",".",".","."]],[[9,"/",10,9,"/",10,".",".",".",".",".",".",".",".",".",".","_",".",".",".",".",".",".",".",".",".",".",".",".",".",".","."],[".",".",".",".",".",".",10,"h",12,10,"h",12,10,".",".",".","_",".",".",".",".",".",".",10,8,7,".",".",".",".",".","."],[".",".",".",".",".",".",".",".",".",".",".",".",".",7,".",7,"_",8,"/",9,8,7,".",".",".",".",9,7,"/",6,7,7],[".",".",".",".",".",".",".",".",".",".",".",".",".",".",9,".","_",".",".",".",".",".",8,".",".",".",".",".",".",".",".","."],[".",".",".",".",".",".",".",".",".",".",".",".",".",".",".",".","_",".",".",".",".",".",".",".",".",".",".",".",".",".",".","."],[".",".",".",".",".",".",".",".",".",".",".",".",".",".",".",".","_",".",".",".",".",".",".",".",".",".",".",".",".",".",".","."]],[[9,7,7,".",".",".",".",".",10,9,9,".",".","."],[".",".",".",7,7,7,"v",".",".",".",".",10,".","."],[".",".",".",".",".",".",".",9,".",".",".",".",9,"v"],[".",".",".",".",".",".",".",".",".",".",".",".",".","."],[".",".",".",".",".",".",".",".",".",".",".",".",".","."],[".",".",".",".",".",".",".",".",".",".",".",".",".","."]]],"numberofstrings":6,"notes":["E","B","G","D","A","E","B"],"capo":0,"stringnotes":["E4","B3","G3","D3","A2","E2"],"comments":["Stave 1:","Stave 2:","Stave 3:","Stave 4:"],"timing":[["W",null,"W","W","W","W","W","W",null,"W",null,"W","W",null,"W",null,"W","W","W","W",null,null,"W",null,"W","W",null,"W",null,"W","W",null,"W",null,"W","W",null,"W","W","W","W","W"],["W",null,"W","W","W","W","W","W","W","W","W","W","W","W",null,"W","W",null,"W","W","W","W","W","W","W","W","W","W","W","W","W",null,"W","W","W","W","W","W","W","W","W",null,"W"],["W",null,"W","W",null,"W","W",null,"W","W",null,"W","W","W","W","W",null,"W",null,"W","W","W","W","W","W","W","W","W","W","W","W","W"],["W","W","W","W","W","W",null,"W","W","W","W","W","W"]],"timingvisible":false,"tabcounter":14,"stave":3,"totalstaves":4,"instrument":"6guitar","selectedtuning":"6_standard","version":"13"}

Member for

1 year 4 months
Submitted by JoãoAlex on Fri, 2020-04-24 19:55