Frases II-V-I Dó Maior

Chords

01234567891011121314151617181920212223
E
B
G
D
A
E
B
0 1 2 3 4 5 6 7 8 9 10 11 12 13 14 15 16 17 18 19 20 21 22 23
(/) Slide Up  (\) Slide Down  (h) Hammer On  (p) Pull Off  (b) Bend (r) Release (v) Vibrato

Stave 1:

E|------------------------------------------------------------5--------------9p8p7------------
B|---------------5------------6--7--8--6p5-----5--6--------------6--8--5------------8-----10--
G|---------2--5-----4v-----7----------------6--------5---------------------------------9------
D|--3v----------------------------------------------------------------------------------------
A|--------------------------------------------------------------------------------------------
E|--------------------------------------------------------------------------------------------

Stave 2:

E|-----------7--------6--5--------5--4--3--------------------------------
B|-----6--5-----8--6--------6--5-----------6--4--------6--5--------5--3--
G|--7--------------------------------------------5--4--------4--5--------
D|-----------------------------------------------------------------------
A|-----------------------------------------------------------------------
E|-----------------------------------------------------------------------

Stave 3:

E|--7--8--10--------7--6--------6--5--------------4--5-----
B|------------9-----------7--6--------6--5--8-----------3--
G|---------------------------------------------7-----------
D|---------------------------------------------------------
A|---------------------------------------------------------
E|---------------------------------------------------------

Stave 4:

E|--------------------------------------------------
B|--------------------------------------------------
G|--------------------------------------------------
D|-----------3--2--5--6--5--3--------3--------------
A|--------3-----------------------5-----3--2--5-----
E|--1--5-----------------------6-----------------3--

Stave 5:

E|-----------------------
B|-----------------------
G|-----------------------
D|--------2--------------
A|-----3-----5-----2--3--
E|--5-----------3--------

							http://www.guitartabcreator.com
Instruments
{"strings":[[[".",".","_",".",".",".",".",".","_",".",".",".",".",".",".",".",".",".",".",".","_","_",5,".",".",".","_",9,"p",8,"p",7,".",".","."],[".",".","_",".",".",5,".",".","_",".",6,7,8,6,"p",5,".",5,6,".","_","_",".",6,8,5,"_",".",".",".",".",".",8,".",10],[".",".","_",2,5,".",4,"v","_",7,".",".",".",".",".",".",6,".",".",5,"_","_",".",".",".",".","_",".",".",".",".",".",".",9,"."],[3,"v","_",".",".",".",".",".","_",".",".",".",".",".",".",".",".",".",".",".","_","_",".",".",".",".","_",".",".",".",".",".",".",".","."],[".",".","_",".",".",".",".",".","_",".",".",".",".",".",".",".",".",".",".",".","_","_",".",".",".",".","_",".",".",".",".",".",".",".","."],[".",".","_",".",".",".",".",".","_",".",".",".",".",".",".",".",".",".",".",".","_","_",".",".",".",".","_",".",".",".",".",".",".",".","."]],[[".",".",".",7,".",".",6,5,".",".",5,4,3,".",".",".",".",".",".",".",".",".","."],[".",6,5,".",8,6,".",".",6,5,".",".",".",6,4,".",".",6,5,".",".",5,3],[7,".",".",".",".",".",".",".",".",".",".",".",".",".",".",5,4,".",".",4,5,".","."],[".",".",".",".",".",".",".",".",".",".",".",".",".",".",".",".",".",".",".",".",".",".","."],[".",".",".",".",".",".",".",".",".",".",".",".",".",".",".",".",".",".",".",".",".",".","."],[".",".",".",".",".",".",".",".",".",".",".",".",".",".",".",".",".",".",".",".",".",".","."]],[[7,8,10,".","_",7,6,".",".",6,5,".",".",".",".",4,5,"."],[".",".",".",9,"_",".",".",7,6,".",".",6,5,8,".",".",".",3],[".",".",".",".","_",".",".",".",".",".",".",".",".",".",7,".",".","."],[".",".",".",".","_",".",".",".",".",".",".",".",".",".",".",".",".","."],[".",".",".",".","_",".",".",".",".",".",".",".",".",".",".",".",".","."],[".",".",".",".","_",".",".",".",".",".",".",".",".",".",".",".",".","."]],[[".",".",".",".",".",".",".",".",".",".",".",".",".",".",".","."],[".",".",".",".",".",".",".",".",".",".",".",".",".",".",".","."],[".",".",".",".",".",".",".",".",".",".",".",".",".",".",".","."],[".",".",".",3,2,5,6,5,3,".",".",3,".",".",".","."],[".",".",3,".",".",".",".",".",".",".",5,".",3,2,5,"."],[1,5,".",".",".",".",".",".",".",6,".",".",".",".",".",3]],[[".",".",".",".",".",".","."],[".",".",".",".",".",".","."],[".",".",".",".",".",".","."],[".",".",2,".",".",".","."],[".",3,".",5,".",2,3],[5,".",".",".",3,".","."]]],"numberofstrings":6,"notes":["E","B","G","D","A","E","B"],"capo":0,"stringnotes":["E4","B3","G3","D3","A2","E2"],"comments":["Stave 1:","Stave 2:","Stave 3:","Stave 4:","Stave 5:"],"timing":[["W","W","W","W","W","W","W",null,null,"W","W","W","W","W",null,"W","W","W","W","W",null,null,"W","W","W","W",null,"W",null,"W",null,"W","W","W","W"],["W","W","W","W","W","W","W","W","W","W","W","W","W","W","W","W","W","W","W","W","W","W","W"],["W","W","W","W",null,"W","W","W","W","W","W","W","W","W","W","W","W","W","W"],["W","W","W","W","W","W","W","W","W","W","W","W","W","W","W","W","W","W","W","W","W"],["W","W","W","W","W","W","W"]],"timingvisible":false,"tabcounter":7,"stave":4,"totalstaves":5,"instrument":"6guitar","selectedtuning":"6_standard","version":"13"}

Member for

1 year 4 months
Submitted by JoãoAlex on Tue, 2020-09-01 17:52