Djavan - Samurai ( Solo Feito na Gaita Cromática 1:53)

Chords

01234567891011121314151617181920212223
E
B
G
D
A
E
B
0 1 2 3 4 5 6 7 8 9 10 11 12 13 14 15 16 17 18 19 20 21 22 23
(/) Slide Up  (\) Slide Down  (h) Hammer On  (p) Pull Off  (b) Bend (r) Release (v) Vibrato

Stave 1:

E|--11/12v--11v---------------11-----------------------------------------------------------------------------
B|---------------12/14v--14v------12v--12----------------12--11--11---------12---------12--------------------
G|-----------------------------------------12/13--12/13--------------11/12------12/13------8h9p8--11/12------
D|-------------------------------------------------------------------------------------------------------13--
A|-----------------------------------------------------------------------------------------------------------
E|-----------------------------------------------------------------------------------------------------------

Stave 2:

E|-----------------------
B|-----------------------
G|--9--8--9--8--9--8--6--
D|-----------------------
A|-----------------------
E|-----------------------

Stave 3:

E|----------------------------
B|----------------------------
G|--9--8--9--8--9--8----------
D|--------------------12--10--
A|----------------------------
E|----------------------------

Stave 4:

E|-------------------------------------------------------------------------------
B|------12--11------12--11------12--11/12--11/12--11/12--11/12----------12--14v--
G|--13----------13----------13----------------------------------13--13-----------
D|-------------------------------------------------------------------------------
A|-------------------------------------------------------------------------------
E|-------------------------------------------------------------------------------

Stave 5:

E|--12--12--16--19--18--
B|----------------------
G|----------------------
D|----------------------
A|----------------------
E|----------------------

							http://www.guitartabcreator.com
Instruments
{"title":"Djavan - Samurai ( Solo Feito na Gaita Cromática 1:53)","strings":[[[11,"/",12,"v",11,"v",".",".",".",".",".",".",11,".",".",".",".",".",".",".",".",".",".",".",".",".",".",".",".",".",".",".",".",".",".",".",".",".",".",".",".","."],[".",".",".",".",".",".",12,"/",14,"v",14,"v",".",12,"v",12,".",".",".",".",".",".",12,11,11,".",".",".",12,".",".",".",12,".",".",".",".",".",".",".",".","."],[".",".",".",".",".",".",".",".",".",".",".",".",".",".",".",".",12,"/",13,12,"/",13,".",".",".",11,"/",12,".",12,"/",13,".",8,"h",9,"p",8,11,"/",12,"."],[".",".",".",".",".",".",".",".",".",".",".",".",".",".",".",".",".",".",".",".",".",".",".",".",".",".",".",".",".",".",".",".",".",".",".",".",".",".",".",".",".",13],[".",".",".",".",".",".",".",".",".",".",".",".",".",".",".",".",".",".",".",".",".",".",".",".",".",".",".",".",".",".",".",".",".",".",".",".",".",".",".",".",".","."],[".",".",".",".",".",".",".",".",".",".",".",".",".",".",".",".",".",".",".",".",".",".",".",".",".",".",".",".",".",".",".",".",".",".",".",".",".",".",".",".",".","."]],[[".",".",".",".",".",".","."],[".",".",".",".",".",".","."],[9,8,9,8,9,8,6],[".",".",".",".",".",".","."],[".",".",".",".",".",".","."],[".",".",".",".",".",".","."]],[[".",".",".",".",".",".",".","."],[".",".",".",".",".",".",".","."],[9,8,9,8,9,8,".","."],[".",".",".",".",".",".",12,10],[".",".",".",".",".",".",".","."],[".",".",".",".",".",".",".","."]],[[".",".",".",".",".",".",".",".",".",".",".",".",".",".",".",".",".",".",".",".",".",".",".",".","."],[".",12,11,".",12,11,".",12,11,"/",12,11,"/",12,11,"/",12,11,"/",12,".",".",12,14,"v"],[13,".",".",13,".",".",13,".",".",".",".",".",".",".",".",".",".",".",".",".",13,13,".",".","."],[".",".",".",".",".",".",".",".",".",".",".",".",".",".",".",".",".",".",".",".",".",".",".",".","."],[".",".",".",".",".",".",".",".",".",".",".",".",".",".",".",".",".",".",".",".",".",".",".",".","."],[".",".",".",".",".",".",".",".",".",".",".",".",".",".",".",".",".",".",".",".",".",".",".",".","."]],[[12,12,16,19,18],[".",".",".",".","."],[".",".",".",".","."],[".",".",".",".","."],[".",".",".",".","."],[".",".",".",".","."]]],"numberofstrings":6,"notes":["E","B","G","D","A","E","B"],"capo":0,"stringnotes":["E4","B3","G3","D3","A2","E2"],"comments":["Stave 1:","Stave 2:","Stave 3:","Stave 4:","Stave 5:"],"timing":[["W",null,"W",null,"W",null,"W",null,"W",null,"W",null,"W","W",null,"W","W",null,"W","W",null,"W","W","W","W","W",null,"W","W","W",null,"W","W","W",null,"W",null,"W","W",null,"W","W"],["W","W","W","W","W","W","W"],["W","W","W","W","W","W","W","W"],["W","W","W","W","W","W","W","W","W","W","W","W",null,"W","W","W","W","W",null,"W","W","W","W","W"],["W","W","W","W","W"]],"timingvisible":false,"tabcounter":25,"stave":3,"totalstaves":5,"instrument":"6guitar","selectedtuning":"6_standard","version":"13"}

Member for

1 year 4 months
Submitted by JoãoAlex on Thu, 2019-07-18 19:16