Djavan - Cigano (Solo - 02)

Chords

01234567891011121314151617181920212223
E
B
G
D
A
E
B
0 1 2 3 4 5 6 7 8 9 10 11 12 13 14 15 16 17 18 19 20 21 22 23
(/) Slide Up  (\) Slide Down  (h) Hammer On  (p) Pull Off  (b) Bend (r) Release (v) Vibrato

Stave 1:

E|-------------|---------------------|--------------------|-----------------|--
B|--9--12--12--|--9----------12--12--|--9---------12--12--|--9------12--12--|--
G|-------------|-----11--11----------|-----11--9----------|-----11----------|--
D|-------------|---------------------|--------------------|-----------------|--
A|-------------|---------------------|--------------------|-----------------|--
E|-------------|---------------------|--------------------|-----------------|--

Stave 2:

E|---------------------------------|------------------------------------------------|--
B|--9------12b14--12b14--12b14r12--|--9--12p9---------------------------------------|--
G|-----11--------------------------|-----------11--9------9--11p9---------9------9--|--
D|---------------------------------|------------------11-----------9--11-----11-----|--
A|---------------------------------|------------------------------------------------|--
E|---------------------------------|------------------------------------------------|--

Stave 3:

E|--14b16--16r14p12--14b16--12v--|--12--11--9--8-----12--11--9v----------------11--9----------------
B|-------------------------------|-------------------------------12--9------9---------12--9------9--
G|-------------------------------|--------------------------------------11-------------------11-----
D|-------------------------------|------------------------------------------------------------------
A|-------------------------------|------------------------------------------------------------------
E|-------------------------------|------------------------------------------------------------------

Stave 4:

E|--12--9----------------12b14r12--9------9--------------------------------|--
B|---------12--9------9---------------12-----12b14--12b14r12--9---------12b|--
G|----------------11---------------------------------------------11--9--12-|--
D|-------------------------------------------------------------------------|--
A|-------------------------------------------------------------------------|--
E|-------------------------------------------------------------------------|--

Stave 5:

E|-------------------------------12b14r12--12--|--
B|--12b14r12b14r12-----------------------------|--
G|------------------12b14r12p10----------------|--
D|---------------------------------------------|--
A|---------------------------------------------|--
E|---------------------------------------------|--

Stave 6:

E|-----------------------|---------16--16--|----------------|--19b21--19b21--19v--|--
B|--19b21--19b21--19b21--|--19b21----------|--19b21p17--19--|---------------------|--
G|-----------------------|-----------------|----------------|---------------------|--
D|-----------------------|-----------------|----------------|---------------------|--
A|-----------------------|-----------------|----------------|---------------------|--
E|-----------------------|-----------------|----------------|---------------------|--

							http://www.guitartabcreator.com
Tab Notes

(6x)

 

Instruments
{"title":"Djavan - Cigano (Solo - 02) ","strings":[[[".",".",".","|",".",".",".",".",".","|",".",".",".",".",".","|",".",".",".",".","|"],[9,12,12,"|",9,".",".",12,12,"|",9,".",".",12,12,"|",9,".",12,12,"|"],[".",".",".","|",".",11,11,".",".","|",".",11,9,".",".","|",".",11,".",".","|"],[".",".",".","|",".",".",".",".",".","|",".",".",".",".",".","|",".",".",".",".","|"],[".",".",".","|",".",".",".",".",".","|",".",".",".",".",".","|",".",".",".",".","|"],[".",".",".","|",".",".",".",".",".","|",".",".",".",".",".","|",".",".",".",".","|"]],[[".",".",".",".",".",".",".",".",".",".",".",".",".","|",".",".",".",".",".",".",".",".",".",".",".",".",".",".",".",".","|"],[9,".",12,"b",14,12,"b",14,12,"b",14,"r",12,"|",9,12,"p",9,".",".",".",".",".",".",".",".",".",".",".",".","|"],[".",11,".",".",".",".",".",".",".",".",".",".",".","|",".",".",".",".",11,9,".",9,11,"p",9,".",".",9,".",9,"|"],[".",".",".",".",".",".",".",".",".",".",".",".",".","|",".",".",".",".",".",".",11,".",".",".",".",9,11,".",11,".","|"],[".",".",".",".",".",".",".",".",".",".",".",".",".","|",".",".",".",".",".",".",".",".",".",".",".",".",".",".",".",".","|"],[".",".",".",".",".",".",".",".",".",".",".",".",".","|",".",".",".",".",".",".",".",".",".",".",".",".",".",".",".",".","|"]],[[14,"b",16,16,"r",14,"p",12,14,"b",16,12,"v","|",12,11,9,8,"_",12,11,9,"v",".",".",".",".",11,9,".",".",".","."],[".",".",".",".",".",".",".",".",".",".",".",".",".","|",".",".",".",".","_",".",".",".",".",12,9,".",9,".",".",12,9,".",9],[".",".",".",".",".",".",".",".",".",".",".",".",".","|",".",".",".",".","_",".",".",".",".",".",".",11,".",".",".",".",".",11,"."],[".",".",".",".",".",".",".",".",".",".",".",".",".","|",".",".",".",".","_",".",".",".",".",".",".",".",".",".",".",".",".",".","."],[".",".",".",".",".",".",".",".",".",".",".",".",".","|",".",".",".",".","_",".",".",".",".",".",".",".",".",".",".",".",".",".","."],[".",".",".",".",".",".",".",".",".",".",".",".",".","|",".",".",".",".","_",".",".",".",".",".",".",".",".",".",".",".",".",".","."]],[[12,9,".",".",".",".",12,"b",14,"r",12,9,".",9,".",".",".",".",".",".",".",".",".",".",".",".",".","|"],[".",".",12,9,".",9,".",".",".",".",".",".",12,".",12,"b",14,12,"b",14,"r",12,9,".",".",12,"b","|"],[".",".",".",".",11,".",".",".",".",".",".",".",".",".",".",".",".",".",".",".",".",".",".",11,9,12,".","|"],[".",".",".",".",".",".",".",".",".",".",".",".",".",".",".",".",".",".",".",".",".",".",".",".",".",".",".","|"],[".",".",".",".",".",".",".",".",".",".",".",".",".",".",".",".",".",".",".",".",".",".",".",".",".",".",".","|"],[".",".",".",".",".",".",".",".",".",".",".",".",".",".",".",".",".",".",".",".",".",".",".",".",".",".",".","|"]],[[".",".",".",".",".",".",".",".",".",".",".",".",".",".",".",".",12,"b",14,"r",12,12,"|"],[12,"b",14,"r",12,"b",14,"r",12,".",".",".",".",".",".",".",".",".",".",".",".",".","|"],[".",".",".",".",".",".",".",".",".",12,"b",14,"r",12,"p",10,".",".",".",".",".",".","|"],[".",".",".",".",".",".",".",".",".",".",".",".",".",".",".",".",".",".",".",".",".",".","|"],[".",".",".",".",".",".",".",".",".",".",".",".",".",".",".",".",".",".",".",".",".",".","|"],[".",".",".",".",".",".",".",".",".",".",".",".",".",".",".",".",".",".",".",".",".",".","|"]],[[".",".",".",".",".",".",".",".",".","|",".",".",".",16,16,"|",".",".",".",".",".",".","|",19,"b",21,19,"b",21,19,"v","|"],[19,"b",21,19,"b",21,19,"b",21,"|",19,"b",21,".",".","|",19,"b",21,"p",17,19,"|",".",".",".",".",".",".",".",".","|"],[".",".",".",".",".",".",".",".",".","|",".",".",".",".",".","|",".",".",".",".",".",".","|",".",".",".",".",".",".",".",".","|"],[".",".",".",".",".",".",".",".",".","|",".",".",".",".",".","|",".",".",".",".",".",".","|",".",".",".",".",".",".",".",".","|"],[".",".",".",".",".",".",".",".",".","|",".",".",".",".",".","|",".",".",".",".",".",".","|",".",".",".",".",".",".",".",".","|"],[".",".",".",".",".",".",".",".",".","|",".",".",".",".",".","|",".",".",".",".",".",".","|",".",".",".",".",".",".",".",".","|"]]],"numberofstrings":6,"notes":["E","B","G","D","A","E","B"],"capo":0,"stringnotes":["E4","B3","G3","D3","A2","E2"],"comments":["Stave 1:","Stave 2:","Stave 3:","Stave 4:","Stave 5:","Stave 6:"],"timing":[["W","W","W",null,"W","W","W","W","W",null,"W","W","W","W","W",null,"W","W","W","W"],["W","W","W",null,"W","W",null,"W","W",null,"W",null,"W",null,"W","W",null,"W","W","W","W","W","W",null,"W","W","W","W","W","W"],["W","W","W","W",null,"W","W","W","W","W","W","W",null,null,"W","W","W","W",null,"W","W","W",null,"W","W","W","W","W","W","W","W","W","W"],["W","W","W","W","W","W","W",null,"W",null,"W","W","W","W","W",null,"W","W",null,"W",null,"W","W","W","W","W"],["W",null,"W",null,"W",null,"W",null,"W","W",null,"W",null,"W",null,"W","W",null,"W",null,"W","W"],["W",null,"W","W",null,"W","W",null,"W",null,"W",null,"W","W","W",null,"W",null,"W",null,"W","W",null,"W",null,"W","W",null,"W","W"]],"timingvisible":false,"tabcounter":32,"stave":5,"totalstaves":6,"instrument":"6guitar","selectedtuning":"6_standard","version":"13"}

Member for

1 year 4 months
Submitted by JoãoAlex on Thu, 2019-07-18 13:38