Dazaranha - Se Tu Diz (Solo - Introdução)

Chords

01234567891011121314151617181920212223
E
B
G
D
A
E
B
0 1 2 3 4 5 6 7 8 9 10 11 12 13 14 15 16 17 18 19 20 21 22 23
(/) Slide Up  (\) Slide Down  (h) Hammer On  (p) Pull Off  (b) Bend (r) Release (v) Vibrato

Stave 1:

E|--------------------------------------|--------------------------------|--
B|-------------------------11/12v-------|--------------------------------|--
G|--12--12--12--12--10h12----------12v--|--12--12--------------------10--|--
D|--------------------------------------|----------11p10--8--------------|--
A|--------------------------------------|--------------------7/8/10------|--
E|--------------------------------------|--------------------------------|--

Stave 2:

E|-------------------------------------|------------------------------
B|-------------------------11/12-------|------11--13b15r13p11---------
G|--12--12--12--12--10h12---------12v--|--12-------------------10/12--
D|-------------------------------------|------------------------------
A|-------------------------------------|------------------------------
E|-------------------------------------|------------------------------

							http://www.guitartabcreator.com
Instruments
{"title":"Dazaranha - Se Tu Diz (Solo - Introdução)","strings":[[[".",".",".",".",".",".",".",".",".",".",".",".",".","|",".",".",".",".",".",".",".",".",".",".",".",".","|"],[".",".",".",".",".",".",".",11,"/",12,"v",".",".","|",".",".",".",".",".",".",".",".",".",".",".",".","|"],[12,12,12,12,10,"h",12,".",".",".",".",12,"v","|",12,12,".",".",".",".",".",".",".",".",".",10,"|"],[".",".",".",".",".",".",".",".",".",".",".",".",".","|",".",".",11,"p",10,8,".",".",".",".",".",".","|"],[".",".",".",".",".",".",".",".",".",".",".",".",".","|",".",".",".",".",".",".",7,"/",8,"/",10,".","|"],[".",".",".",".",".",".",".",".",".",".",".",".",".","|",".",".",".",".",".",".",".",".",".",".",".",".","|"]],[[".",".",".",".",".",".",".",".",".",".",".",".","|",".",".",".",".",".",".",".",".",".",".",".","."],[".",".",".",".",".",".",".",11,"/",12,".",".","|",".",11,13,"b",15,"r",13,"p",11,".",".","."],[12,12,12,12,10,"h",12,".",".",".",12,"v","|",12,".",".",".",".",".",".",".",".",10,"/",12],[".",".",".",".",".",".",".",".",".",".",".",".","|",".",".",".",".",".",".",".",".",".",".",".","."],[".",".",".",".",".",".",".",".",".",".",".",".","|",".",".",".",".",".",".",".",".",".",".",".","."],[".",".",".",".",".",".",".",".",".",".",".",".","|",".",".",".",".",".",".",".",".",".",".",".","."]]],"numberofstrings":6,"notes":["E","B","G","D","A","E","B"],"capo":0,"stringnotes":["E4","B3","G3","D3","A2","E2"],"comments":["Stave 1:","Stave 2:"],"timing":[["W","W","W","W","W","W","W","W","W","W",null,"W","W",null,"W","W","W",null,"W","W","W",null,"W",null,"W","W"],["W","W","W","W","W",null,"W","W",null,"W","W",null,null,"W","W","W",null,"W",null,"W",null,"W","W",null,"W"]],"timingvisible":false,"tabcounter":25,"stave":1,"totalstaves":2,"instrument":"6guitar","selectedtuning":"6_standard","version":"13"}

Member for

1 year 4 months
Submitted by JoãoAlex on Sat, 2019-08-17 08:16