Dazaranha - Café Com Cigarro (Jazzy Solo)

Chords

01234567891011121314151617181920212223
E
B
G
D
A
E
B
0 1 2 3 4 5 6 7 8 9 10 11 12 13 14 15 16 17 18 19 20 21 22 23
(/) Slide Up  (\) Slide Down  (h) Hammer On  (p) Pull Off  (b) Bend (r) Release (v) Vibrato

Stave 1:

E|------------------------------------------------------------------------------6--5h6p5-----5--
B|------------------------5h6p5-----------------------5--8----------------5--8------------8-----
G|-------------------5h7---------7--5--7-----------5--------5/3--------5------------------------
D|------------3h5/7-----------------------------------------------------------------------------
A|-------3h5------------------------------------------------------------------------------------
E|--3h5-----------------------------------------------------------------------------------------

Stave 2:

E|----------8--10/11\10--8---------------------------------------------------------------------
B|--7h8h10------------------7h8p7------7---------------------------------------------------5h6h
G|---------------------------------10-----8--7h8p7------7-----------------------------5h7------
D|--------------------------------------------------10-----8--7h8p7--5h7p5-----5h7h8-----------
A|---------------------------------------------------------------------------------------------
E|---------------------------------------------------------------------------------------------

Stave 3:

E|---------------------------8p6p5----------------------------------------------------------
B|--8--6--5h6p5-----5---------------8p6p5---------------------------------------------------
G|---------------7-----7--5----------------7p5--8--7h8p7------7-----------------------------
D|--------------------------------------------------------10-----10--8--7h8p7--5h7--5--4/5--
A|------------------------------------------------------------------------------------------
E|------------------------------------------------------------------------------------------

Stave 4:

E|---------------------5h6--6h8--6--5-----6--5-----5---------------------------------------------
B|--------------5h6h8---------------------8--6-----6--5h6p5-----5--------------------8--7--------
G|---------5h7-------------------------7--------7------------7--5--------5--8--7--5--------8--7--
D|--5h7h8-------------------------------------------------------------7--------------------------
A|-----------------------------------------------------------------------------------------------
E|-----------------------------------------------------------------------------------------------

Stave 5:

E|--------------------------------------------------------------------------
B|--------------------------------------------------------------------------
G|--5h7p5-----5-------------------------------------------------------5-----
D|---------8-----8--7--5--5h7--5\4h5p4-----4\------------------3h5/7-----7--
A|--------------------------------------7-----------------3h5---------------
E|-------------------------------------------------3h5h6--------------------

Stave 6:

E|-------------------------10------13--15b16--15--13------15--13---------10-------------------------------10------
B|-------------10--13------10--13---------------------13------13---------10--13--10--13b15r13--10---------10------
G|--10--12b13----------12-----------------------------------------12b13----------------------------10h12----------
D|------------------------------------------------------------------------------------------------------------12--
A|----------------------------------------------------------------------------------------------------------------
E|----------------------------------------------------------------------------------------------------------------

							http://www.guitartabcreator.com
Instruments
{"title":"Dazaranha - Café Com Cigarro (Jazzy Solo)","strings":[[[".",".",".",".",".",".",".",".",".",".",".",".",".",".",".",".",".",".",".",".",".",".","_","_","_",".",".",".",".",".",".","_","_",".",".",".",6,5,"h",6,"p",5,".",5],[".",".",".",".",".",".",".",".",".",".",".",".",".",".",5,"h",6,"p",5,".",".",".","_","_","_",".",5,8,".",".",".","_","_",".",5,8,".",".",".",".",".",".",8,"."],[".",".",".",".",".",".",".",".",".",".",".",5,"h",7,".",".",".",".",".",7,5,7,"_","_","_",5,".",".",5,"/",3,"_","_",5,".",".",".",".",".",".",".",".",".","."],[".",".",".",".",".",".",3,"h",5,"/",7,".",".",".",".",".",".",".",".",".",".",".","_","_","_",".",".",".",".",".",".","_","_",".",".",".",".",".",".",".",".",".",".","."],[".",".",".",3,"h",5,".",".",".",".",".",".",".",".",".",".",".",".",".",".",".",".","_","_","_",".",".",".",".",".",".","_","_",".",".",".",".",".",".",".",".",".",".","."],[3,"h",5,".",".",".",".",".",".",".",".",".",".",".",".",".",".",".",".",".",".",".","_","_","_",".",".",".",".",".",".","_","_",".",".",".",".",".",".",".",".",".",".","."]],[[".",".",".",".",".",8,10,"/",11,"\\",10,8,".",".",".",".",".",".",".",".",".",".",".",".",".",".",".",".",".",".",".",".",".",".",".",".",".",".","_",".",".",".",".",".",".",".",".",".",".",".","."],[7,"h",8,"h",10,".",".",".",".",".",".",".",7,"h",8,"p",7,".",7,".",".",".",".",".",".",".",".",".",".",".",".",".",".",".",".",".",".",".","_",".",".",".",".",".",".",".",".",5,"h",6,"h"],[".",".",".",".",".",".",".",".",".",".",".",".",".",".",".",".",".",10,".",8,7,"h",8,"p",7,".",7,".",".",".",".",".",".",".",".",".",".",".","_",".",".",".",".",".",5,"h",7,".",".",".","."],[".",".",".",".",".",".",".",".",".",".",".",".",".",".",".",".",".",".",".",".",".",".",".",".",".",10,".",8,7,"h",8,"p",7,5,"h",7,"p",5,"_",5,"h",7,"h",8,".",".",".",".",".",".","."],[".",".",".",".",".",".",".",".",".",".",".",".",".",".",".",".",".",".",".",".",".",".",".",".",".",".",".",".",".",".",".",".",".",".",".",".",".",".","_",".",".",".",".",".",".",".",".",".",".",".","."],[".",".",".",".",".",".",".",".",".",".",".",".",".",".",".",".",".",".",".",".",".",".",".",".",".",".",".",".",".",".",".",".",".",".",".",".",".",".","_",".",".",".",".",".",".",".",".",".",".",".","."]],[[".",".",".",".",".",".",".",".",".",".",".",8,"p",6,"p",5,".",".",".",".",".",".",".",".",".",".",".",".",".",".",".",".",".",".",".",".",".",".",".",".",".",".",".",".",".","."],[8,6,5,"h",6,"p",5,".",5,".",".",".",".",".",".",".",8,"p",6,"p",5,".",".",".",".",".",".",".",".",".",".",".",".",".",".",".",".",".",".",".",".",".",".",".",".","."],[".",".",".",".",".",".",".",7,".",7,5,".",".",".",".",".",".",".",".",".",".",7,"p",5,8,7,"h",8,"p",7,".",7,".",".",".",".",".",".",".",".",".",".",".",".",".","."],[".",".",".",".",".",".",".",".",".",".",".",".",".",".",".",".",".",".",".",".",".",".",".",".",".",".",".",".",".",".",10,".",10,8,7,"h",8,"p",7,5,"h",7,5,4,"/",5],[".",".",".",".",".",".",".",".",".",".",".",".",".",".",".",".",".",".",".",".",".",".",".",".",".",".",".",".",".",".",".",".",".",".",".",".",".",".",".",".",".",".",".",".",".","."],[".",".",".",".",".",".",".",".",".",".",".",".",".",".",".",".",".",".",".",".",".",".",".",".",".",".",".",".",".",".",".",".",".",".",".",".",".",".",".",".",".",".",".",".",".","."]],[[".",".",".",".",".",".",".",".",".",".",".",".",".",5,"h",6,6,"h",8,6,5,".",6,5,".",5,".",".",".",".",".",".",".","_",".",".",".",".",".",".",".",".","."],[".",".",".",".",".",".",".",".",5,"h",6,"h",8,".",".",".",".",".",".",".",".",".",8,6,".",6,5,"h",6,"p",5,".",5,"_",".",".",".",".",".",8,7,".","."],[".",".",".",".",".",5,"h",7,".",".",".",".",".",".",".",".",".",".",".",".",".",7,".",".",7,".",".",".",".",".",".",7,5,"_",".",5,8,7,5,".",".",8,7],[5,"h",7,"h",8,".",".",".",".",".",".",".",".",".",".",".",".",".",".",".",".",".",".",".",".",".",".",".",".",".",".",".",".","_",7,".",".",".",".",".",".",".","."],[".",".",".",".",".",".",".",".",".",".",".",".",".",".",".",".",".",".",".",".",".",".",".",".",".",".",".",".",".",".",".",".",".","_",".",".",".",".",".",".",".",".","."],[".",".",".",".",".",".",".",".",".",".",".",".",".",".",".",".",".",".",".",".",".",".",".",".",".",".",".",".",".",".",".",".",".","_",".",".",".",".",".",".",".",".","."]],[[".",".",".",".",".",".",".",".",".",".",".",".",".",".",".",".",".",".",".",".",".",".",".","_","_",".",".",".",".",".",".",".",".",".",".",".",".",".",".","."],[".",".",".",".",".",".",".",".",".",".",".",".",".",".",".",".",".",".",".",".",".",".",".","_","_",".",".",".",".",".",".",".",".",".",".",".",".",".",".","."],[5,"h",7,"p",5,".",5,".",".",".",".",".",".",".",".",".",".",".",".",".",".",".",".","_","_",".",".",".",".",".",".",".",".",".",".",".",".",".",5,"."],[".",".",".",".",".",8,".",8,7,5,5,"h",7,5,"\\",4,"h",5,"p",4,".",4,"\\","_","_",".",".",".",".",".",".",".",".",3,"h",5,"/",7,".",7],[".",".",".",".",".",".",".",".",".",".",".",".",".",".",".",".",".",".",".",".",7,".",".","_","_",".",".",".",".",".",3,"h",5,".",".",".",".",".",".","."],[".",".",".",".",".",".",".",".",".",".",".",".",".",".",".",".",".",".",".",".",".",".",".","_","_",3,"h",5,"h",6,".",".",".",".",".",".",".",".",".","."]],[[".",".",".",".",".",".",".",10,".",13,15,"b",16,15,13,".",15,13,".",".",".",10,".",".",".",".",".",".",".",".",".",".",".",10,"."],[".",".",".",".",10,13,".",10,13,".",".",".",".",".",".",13,".",13,".",".",".",10,13,10,13,"b",15,"r",13,10,".",".",".",10,"."],[10,12,"b",13,".",".",12,".",".",".",".",".",".",".",".",".",".",".",12,"b",13,".",".",".",".",".",".",".",".",".",10,"h",12,".","."],[".",".",".",".",".",".",".",".",".",".",".",".",".",".",".",".",".",".",".",".",".",".",".",".",".",".",".",".",".",".",".",".",".",".",12],[".",".",".",".",".",".",".",".",".",".",".",".",".",".",".",".",".",".",".",".",".",".",".",".",".",".",".",".",".",".",".",".",".",".","."],[".",".",".",".",".",".",".",".",".",".",".",".",".",".",".",".",".",".",".",".",".",".",".",".",".",".",".",".",".",".",".",".",".",".","."]]],"numberofstrings":6,"notes":["E","B","G","D","A","E","B"],"capo":0,"stringnotes":["E4","B3","G3","D3","A2","E2"],"comments":["Stave 1:","Stave 2:","Stave 3:","Stave 4:","Stave 5:","Stave 6:"],"timing":[["W",null,"W","W",null,"W","W",null,"W",null,"W","W",null,"W","W",null,"W",null,"W","W","W","W",null,null,null,"W","W","W","W","W","W",null,null,"W","W","W","W","W",null,"W",null,"W","W","W"],["W",null,"W","W","W","W","W",null,"W",null,"W","W","W",null,"W",null,"W","W","W","W","W",null,"W",null,"W","W","W","W","W","W","W","W","W","W","W","W","W","W",null,"W",null,"W",null,"W","W",null,"W","W",null,"W"],["W","W","W",null,"W",null,"W","W","W","W","W","W",null,"W",null,"W","W",null,"W",null,"W","W",null,"W","W","W",null,"W",null,"W","W","W","W","W","W","W","W","W","W","W",null,"W","W","W",null,"W"],["W",null,"W",null,"W","W",null,"W","W",null,"W",null,"W","W",null,"W","W",null,"W","W","W","W","W","W","W","W","W",null,"W",null,"W","W","W",null,"W","W","W","W","W","W","W","W","W"],["W",null,"W",null,"W","W","W","W","W","W","W",null,"W","W","W","W","W","W",null,"W","W","W",null,"W",null,"W",null,"W",null,"W","W",null,"W","W",null,"W",null,"W","W","W"],["W","W",null,"W","W","W","W","W","W","W","W",null,"W","W","W","W","W","W","W",null,"W","W","W","W","W",null,"W",null,"W","W","W",null,"W","W","W"]],"timingvisible":false,"tabcounter":35,"stave":5,"totalstaves":6,"instrument":"6guitar","selectedtuning":"6_standard","version":"13"}

Member for

1 year 4 months
Submitted by JoãoAlex on Wed, 2020-02-26 10:16