Sound will begin in 5 seconds

Hisashi Joe's "Howl's Moving Castle theme" by Sungha Jung

Chords
01234567891011121314151617181920212223
E
B
G
D
A
E
B
0 1 2 3 4 5 6 7 8 9 10 11 12 13 14 15 16 17 18 19 20 21 22 23
Song Science #1: How Pros Use 6 Chords to Write Hit Songs
(/) Slide Up  (\) Slide Down  (h) Hammer On  (p) Pull Off  (b) Bend (r) Release (v) Vibrato

Capo Fret 3

Stave 1:

E|---------------------------------------------------------------------------------------5----------
A|------------------------------------------------------------------------------------3-------------
D|--7--8--7--8--7--8------7------7------7------------------------------------------5----------------
G|--------------------10-----10-----10-----8--10--8--10--8--10--7---------------4--------------5\8--
B|-----------------------------------------------------------------10--9--6--5--------------5-------
E|--------------------------------------------------------------------------------------------------

Stave 2:

E|-----------------------------------------------------------
A|--3-----------------------------------8-----8--8--6--4--6--
D|-----8--5--3---------------------3h5--7--8-----8-----------
G|--8--8--4--4--5\7--8--5-----5\7-------8--3-----7-----------
B|--------5--5----------5------------------------8-----------
E|--8--8-------------3-----3------------8--8-----------------

http://www.guitartabcreator.com
Guitar Tab Creator is intended to store guitar tab created through the tool. It currently does not support in-line text editing. Any text you place in here will be lost. If you need to comment on your tab, please use the "Tab Notes" section located below.