Sound will begin in 5 seconds

King Forever in C

Chords
01234567891011121314151617181920212223
E
B
G
D
A
E
B
0 1 2 3 4 5 6 7 8 9 10 11 12 13 14 15 16 17 18 19 20 21 22 23
Song Science #1: How Pros Use 6 Chords to Write Hit Songs
(/) Slide Up  (\) Slide Down  (h) Hammer On  (p) Pull Off  (b) Bend (r) Release (v) Vibrato

Stave 1:

E|-------------------------|--
B|--8---10--3--1--1--3--1--|--
G|--9---9---4--2--2--------|--
D|--10--10--5--0--3--------|--
A|-------------------------|--
E|-------------------------|--

Stave 2:

E|------------------------------------------------------------------|------------------------------------------------------------------|--
B|------13------13------13------13------13------13------15------15--|------12------12------12------12------12------12------13------13--|--
G|--12------12------12------12------12------12------12------12------|--12------12------12------12------12------12------12------12------|--
D|------------------------------------------------------------------|------------------------------------------------------------------|--
A|------------------------------------------------------------------|------------------------------------------------------------------|--
E|------------------------------------------------------------------|------------------------------------------------------------------|--

Stave 3:

E|----------------------------------13------13------12------12----------|--
B|------13------13------13------13------13------13------13------13--13--|--
G|--14------14------14------14--------------------------------------12--|--
D|----------------------------------------------------------------------|--
A|----------------------------------------------------------------------|--
E|----------------------------------------------------------------------|--

Stave 4:

E|------12------12--|------------------|------12------12--|------15------15--
B|--13------13------|--10--13--10--13--|--13------13------|--12------12------
G|------------------|------------------|------------------|------------------
D|------------------|------------------|------------------|------------------
A|------------------|------------------|------------------|------------------
E|------------------|------------------|------------------|------------------

http://www.guitartabcreator.com
Guitar Tab Creator is intended to store guitar tab created through the tool. It currently does not support in-line text editing. Any text you place in here will be lost. If you need to comment on your tab, please use the "Tab Notes" section located below.