Sound will begin in 5 seconds

High Above It All in E

01234567891011121314151617181920212223
E
B
G
D
A
E
B
0 1 2 3 4 5 6 7 8 9 10 11 12 13 14 15 16 17 18 19 20 21 22 23
Song Science #1: How Pros Use 6 Chords to Write Hit Songs
(/) Slide Up  (\) Slide Down  (h) Hammer On  (p) Pull Off  (b) Bend (r) Release (v) Vibrato

Stave 1:

E|-0-0-------------------|-0-0-------------------|-----------------|---------------|---------------|-
B|-----4-0-2-2-----------|-----4-0-2-2-----------|-----------------|---------------|---------------|-
G|-------------4-4-------|-------------4-4-------|---------2-------|-------4-------|-------6-------|-
D|-----------------2-4-6-|-----------------2-4-6-|-4---2-------2---|---4-------4---|---6-------6---|-
A|-----------------------|-----------------------|---0---0---0---0-|-2---2---2---2-|-4---4---4---4-|-
E|-----------------------|-----------------------|-----------------|---------------|---------------|-

Stave 2:

E|-----------------
B|-----------------
G|-------4-4-------
D|---4---------4---
A|-2---2-----2---2-
E|-----------------

Stave 3:

E|-------0-----|-------0-----|-------0-----|-------0-----|-
B|---4-----4---|---4-----4---|---9-----9---|---7-----7---|-
G|-----6-----6-|-----6-----6-|-----9-----9-|-----8-----8-|-
D|-6-----------|-7-----------|-9-----------|-9-----------|-
A|-------------|-------------|-------------|-------------|-
E|-------------|-------------|-------------|-------------|-

Stave 4:

E|-5-5-5-5-7-7-7-7-5-5-5-5-4-4-4-4-|-5-5-5-5-9-9-9-9-7-7-7-7-7-12-12-12-12-16-16-16-16-|----14-16----14----
B|---------------------------------|---------------------------------------------------|-17-------17----16-
G|---------------------------------|---------------------------------------------------|-------------------
D|---------------------------------|---------------------------------------------------|-------------------
A|---------------------------------|---------------------------------------------------|-------------------
E|---------------------------------|---------------------------------------------------|-------------------

http://www.guitartabcreator.com
Guitar Tab Creator is intended to store guitar tab created through the tool. It currently does not support in-line text editing. Any text you place in here will be lost. If you need to comment on your tab, please use the "Tab Notes" section located below.