Sound will begin in 5 seconds

Here In Your Presence in D

01234567891011121314151617181920212223
E
B
G
D
A
E
B
0 1 2 3 4 5 6 7 8 9 10 11 12 13 14 15 16 17 18 19 20 21 22 23
Song Science #1: How Pros Use 6 Chords to Write Hit Songs
(/) Slide Up  (\) Slide Down  (h) Hammer On  (p) Pull Off  (b) Bend (r) Release (v) Vibrato

Stave 1:

E|-12----14-------|-12----14-------|-12----14-------|-12----14-------|----------12-------
B|----15----15----|----15----15----|----15----15----|----15----15----|-12-14-15----------
G|-------------14-|-------------14-|-------------12-|-------------12-|-------------12-11-
D|----------------|----------------|----------------|----------------|-------------------
A|----------------|----------------|----------------|----------------|-------------------
E|----------------|----------------|----------------|----------------|-------------------

Stave 2:

E|-------0-----------0-----|-------0-----------0-----|-------0-----------0-----|-----0-3-----2-----0-----
B|-----3---3-------3---3---|-----3---3-------3---3---|-----3---3-------3---3---|---3-----3-----3-----3---
G|---2-------2---2-------2-|---2-------2---2-------2-|---2-------2---2-------2-|-0---------0-----0-----0-
D|-0-----------0-----------|-------------------------|-------------------------|-------------------------
A|-------------------------|-4-----------4-----------|-2-----------0-----------|-------------------------
E|-------------------------|-------------------------|-------------------------|-------------------------

Stave 3:

E|-------------------------------------|--------------------------------------------------------------
B|-------------------------------------|---------------------------------------10---------------------
G|-7-9-11-9-7-7---7-9-11-9-7-9-7-6-7-9-|---7-9b9-7-9-7-7---7-9\11/9-7-9-7-9\11----11-9-7-9-7-9-7-9\11-
D|--------------9----------------------|-7---------------9--------------------------------------------
A|-------------------------------------|--------------------------------------------------------------
E|-------------------------------------|--------------------------------------------------------------

Stave 4:

E|-------------------------------|-10----10----10----12p10----12p10----12p10----14p10----14p10----14p10----
B|-------10-10-10----------10----|----10----10----10-------10-------10-------10-------10-------10----------
G|-11-11----------11-11-11----11-|----------------------------------------------------------------------10-
D|-------------------------------|-------------------------------------------------------------------------
A|-------------------------------|-------------------------------------------------------------------------
E|-------------------------------|-------------------------------------------------------------------------

Stave 5:

E|-12p10----12p10----12p10----|-10----10----10----12p10----12p10----12p10----12-14-12-10-12-10-
B|-------10-------10-------10-|----10----10----10-------10-------10-------10-------------------
G|----------------------------|----------------------------------------------------------------
D|----------------------------|----------------------------------------------------------------
A|----------------------------|----------------------------------------------------------------
E|----------------------------|----------------------------------------------------------------

Stave 6:

E|-12p10----14p10----12p10----14p10----12p10----14p10----15p10----14p10----12p10----14p10----12p10----
B|-------10-------10-------10-------10-------10-------10-------10-------10-------10-------10-------10-
G|----------------------------------------------------------------------------------------------------
D|----------------------------------------------------------------------------------------------------
A|----------------------------------------------------------------------------------------------------
E|----------------------------------------------------------------------------------------------------

Stave 7:

E|-------------------------------------------------------------------------
B|-10-10-10-10-10-10-14-14-14-14-14-14-15-15-15-15-15-15-17-17-17-17-17-17-
G|-------------------------------------------------------------------------
D|-------------------------------------------------------------------------
A|-------------------------------------------------------------------------
E|-------------------------------------------------------------------------

http://www.guitartabcreator.com
Guitar Tab Creator is intended to store guitar tab created through the tool. It currently does not support in-line text editing. Any text you place in here will be lost. If you need to comment on your tab, please use the "Tab Notes" section located below.