teen spirit

Chords

01234567891011121314151617181920212223
E
B
G
D
A
E
B
0 1 2 3 4 5 6 7 8 9 10 11 12 13 14 15 16 17 18 19 20 21 22 23
(/) Slide Up  (\) Slide Down  (h) Hammer On  (p) Pull Off  (b) Bend (r) Release (v) Vibrato

Stave 1:

E|--------------------------
B|--------------------------
G|--------------------------
D|--------------------------
A|--------1-1--------4-4----
E|-1-1-----------4-4--------

Stave 2:

E|--------------------------
B|--------------------------
G|--------------------------
D|--------3-3-----------6-6-
A|-3-3----1-1----6-6----4-4-
E|-1-1-----------4-4--------

							http://www.guitartabcreator.com
Instruments
{"strings":[[[".",".","_",".",".","_",".",".",".",".","_"],[".",".","_",".",".","_",".",".",".",".","_"],[".",".","_",".",".","_",".",".",".",".","_"],[".",".","_",".",".","_",".",".",".",".","_"],[".",".","_",1,1,"_",".",".",4,4,"_"],[1,1,"_",".",".","_",4,4,".",".","_"]],[[".",".","_",".",".","_",".",".","_",".","."],[".",".","_",".",".","_",".",".","_",".","."],[".",".","_",".",".","_",".",".","_",".","."],[".",".","_",3,3,"_",".",".","_",6,6],[3,3,"_",1,1,"_",6,6,"_",4,4],[1,1,"_",".",".","_",4,4,"_",".","."]]],"numberofstrings":6,"notes":["E","B","G","D","A","E","B"],"capo":0,"stringnotes":["E4","B3","G3","D3","A2","E2"],"comments":["Stave 1:","Stave 2:"],"timing":[["W","W",null,"W","W",null,"W","W","W","W"],["W","W","W","W","W",null,"W","W",null,"W","W"]],"timingvisible":false,"tabcounter":10,"stave":1,"totalstaves":2,"instrument":"6guitar","selectedtuning":"6_standard","version":"13"}

Member for

2 months 1 week
Submitted by jnieves386 on Sat, 2020-08-08 13:13