Sound will begin in 5 seconds

Highway 54 Swing Time solo

Chords
01234567891011121314151617181920212223
E
B
G
D
A
E
B
0 1 2 3 4 5 6 7 8 9 10 11 12 13 14 15 16 17 18 19 20 21 22 23
Song Science #1: How Pros Use 6 Chords to Write Hit Songs
(/) Slide Up  (\) Slide Down  (h) Hammer On  (p) Pull Off  (b) Bend (r) Release (v) Vibrato

Stave 1:

E|--------------------------------------------------------
B|--------------------------------------------------------
G|-----------------------------------------------------4--
D|-----------------------------------------------4--6-----
A|--2--2--2-----------0--2--2--2--0-----2--4--6-----------
E|-----------4--4--4-----------------4--------------------

Stave 2:

E|--------------------------------------------------------
B|-----------7--7--6--7--9--9--7--7--10--10--9--7--10--9--
G|-----------8--8--7--8--9--9--8--8--9---9---9--9--9---9--
D|--------------------------------------------------------
A|--------------------------------------------------------
E|--------------------------------------------------------

Stave 3:

E|-------------------------------------------------------------
B|--9--9--9--9--10--12--12--12--10--9--10--10--10--10--12--14--
G|-------------------------------------------------------------
D|-------------------------------------------------------------
A|-------------------------------------------------------------
E|-------------------------------------------------------------

Stave 4:

E|------------------------------------------------------------------------------------
B|--16------12------7-----------------------------------------15--14--12--14--12------
G|------15------11-----6--4--6--4--6--4-----------4-------------------------------13--
D|---------------------------------------6--4--6-----6--4--2--------------------------
A|------------------------------------------------------------------------------------
E|------------------------------------------------------------------------------------

http://www.guitartabcreator.com
Guitar Tab Creator is intended to store guitar tab created through the tool. It currently does not support in-line text editing. Any text you place in here will be lost. If you need to comment on your tab, please use the "Tab Notes" section located below.