World revolving Bass tab (GB)

01234567891011121314151617181920212223
E
B
G
D
A
E
B
0 1 2 3 4 5 6 7 8 9 10 11 12 13 14 15 16 17 18 19 20 21 22 23
(/) Slide Up  (\) Slide Down  (h) Hammer On  (p) Pull Off  (b) Bend (r) Release (v) Vibrato

Stave 1:

G|--------------------------|--------------------------|--------------------------|--------------:|--
D|--6-----6-----6-----6-----|--2-----2-----2-----4-----|--6-----6-----6-----6-----|--2-----4-----:|--
A|-----6-----6-----6-----6--|-----2-----2-----2-----4--|-----6-----6-----6-----6--|--------------:|--
E|--------------------------|--------------------------|--------------------------|--------------:|--

Stave 2:

G|--------------------------|--------------------------|--------------4-----4-----|--------------------------:|--
D|--2-----2-----4-----4-----|--6-----6-----------------|--2-----2--------4-----4--|--------------5-----5-----:|--
A|-----2-----2-----4-----4--|-----6-----6--6-----6-----|-----2-----2--------------|--4-----4--------6-----6--:|--
E|--------------------------|-----------------6-----6--|--------------------------|-----4-----4--------------:|--

Stave 3:

G|--------------------------|--4-----4-----------------|--------------------------|--4-----4-----------3-----:|--
D|--2-----2-----2-----2-----|-----4-----4--4-----4-----|--2-----2-----2-----2-----|-----4-----4--4--6-----4--:|--
A|-----2-----2-----2-----2--|-----------------4-----4--|-----2-----2-----2-----2--|--------------------------:|--
E|--------------------------|--------------------------|--------------------------|--------------------------:|--

Stave 4:

G|--------------------------|--------------------------:|--------------------------|-----------------------|--
D|--2-----2-----4-----4-----|--6-----6-----4-----4-----:|--2-----2-----4-----4-----|--6-----6--------------|--
A|-----2-----2-----4-----4--|-----6-----6-----4-----4--:|-----2-----2-----4-----4--|-----6-----6--4-----5--|--
E|--------------------------|--------------------------:|--------------------------|-----------------------|--

							http://www.guitartabcreator.com
Chords

Instruments
{"strings":[[[".",".",".",".",".",".",".",".","|",".",".",".",".",".",".",".",".","|",".",".",".",".",".",".",".",".","|",".","_",".","_",":|"],[6,".",6,".",6,".",6,".","|",2,".",2,".",2,".",4,".","|",6,".",6,".",6,".",6,".","|",2,"_",4,"_",":|"],[".",6,".",6,".",6,".",6,"|",".",2,".",2,".",2,".",4,"|",".",6,".",6,".",6,".",6,"|",".","_",".","_",":|"],[".",".",".",".",".",".",".",".","|",".",".",".",".",".",".",".",".","|",".",".",".",".",".",".",".",".","|",".","_",".","_",":|"]],[[".",".",".",".",".",".",".",".","|",".",".",".",".",".",".",".",".","|",".",".",".",".",4,".",4,".","|",".",".",".",".",".",".",".",".",":|"],[2,".",2,".",4,".",4,".","|",6,".",6,".",".",".",".",".","|",2,".",2,".",".",4,".",4,"|",".",".",".",".",5,".",5,".",":|"],[".",2,".",2,".",4,".",4,"|",".",6,".",6,6,".",6,".","|",".",2,".",2,".",".",".",".","|",4,".",4,".",".",6,".",6,":|"],[".",".",".",".",".",".",".",".","|",".",".",".",".",".",6,".",6,"|",".",".",".",".",".",".",".",".","|",".",4,".",4,".",".",".",".",":|"]],[[".",".",".",".",".",".",".",".","|",4,".",4,".",".",".",".",".","|",".",".",".",".",".",".",".",".","|",4,".",4,".",".",".",3,".",":|"],[2,".",2,".",2,".",2,".","|",".",4,".",4,4,".",4,".","|",2,".",2,".",2,".",2,".","|",".",4,".",4,4,6,".",4,":|"],[".",2,".",2,".",2,".",2,"|",".",".",".",".",".",4,".",4,"|",".",2,".",2,".",2,".",2,"|",".",".",".",".",".",".",".",".",":|"],[".",".",".",".",".",".",".",".","|",".",".",".",".",".",".",".",".","|",".",".",".",".",".",".",".",".","|",".",".",".",".",".",".",".",".",":|"]],[[".",".",".",".",".",".",".",".","|",".",".",".",".",".",".",".",".",":|",".",".",".",".",".",".",".",".","|",".",".",".",".",".","_",".","|"],[2,".",2,".",4,".",4,".","|",6,".",6,".",4,".",4,".",":|",2,".",2,".",4,".",4,".","|",6,".",6,".",".","_",".","|"],[".",2,".",2,".",4,".",4,"|",".",6,".",6,".",4,".",4,":|",".",2,".",2,".",4,".",4,"|",".",6,".",6,4,"_",5,"|"],[".",".",".",".",".",".",".",".","|",".",".",".",".",".",".",".",".",":|",".",".",".",".",".",".",".",".","|",".",".",".",".",".","_",".","|"]]],"numberofstrings":4,"notes":["G","D","A","E"],"capo":0,"stringnotes":["G2","D2","A1","E1"],"comments":["Stave 1:","Stave 2:","Stave 3:","Stave 4:"],"timing":[["W","W","W","W","W","W","W","W",null,"W","W","W","W","W","W","W","W",null,"W","W","W","W","W","W","W","W",null,"W","W","W","W"],["W","W","W","W","W","W","W","W",null,"W","W","W","W","W","W","W","W",null,"W","W","W","W","W","W","W","W",null,"W","W","W","W","W","W","W","W"],["W","W","W","W","W","W","W","W",null,"W","W","W","W","W","W","W","W",null,"W","W","W","W","W","W","W","W",null,"W","W","W","W","W","W","W","W"],["W","W","W","W","W","W","W","W",null,"W","W","W","W","W","W","W","W",null,"W","W","W","W","W","W","W","W",null,"W","W","W","W","W","W","W"]],"timingvisible":false,"tabcounter":35,"stave":3,"totalstaves":4,"instrument":"4bass","selectedtuning":"4bass","version":"13"}

Member for

11 months 1 week
Submitted by jmeeks on Thu, 2021-09-16 10:47