Silver lining (uke)

01234567891011121314151617181920212223
E
B
G
D
A
E
B
0 1 2 3 4 5 6 7 8 9 10 11 12 13 14 15 16 17 18 19 20 21 22 23
(/) Slide Up  (\) Slide Down  (h) Hammer On  (p) Pull Off  (b) Bend (r) Release (v) Vibrato

Stave 1:

A|-----------0--------0--------0--------0--|-----------0--------0--------0--------0--|--
E|-----2--------2--------2--------2--------|-----0--------0--------0--------0--------|--
A|--1-----1--------1--------1--------1-----|--1-----1--------1--------1--------1-----|--
G|-----------------------------------------|-----------------------------------------|--

Stave 2:

A|-----------2--------2--------2--------2--|-----------0--------0--------0--------0--|--
E|-----4--------4--------4--------4--------|-----2--------2--------2--------2--------|--
A|--4-----4--------4--------4--------4-----|--1-----1--------1--------1--------1-----|--
G|-----------------------------------------|-----------------------------------------|--

							http://www.guitartabcreator.com
Chords

Instruments
{"strings":[[[".",".",".",0,".",".",0,".",".",0,".",".",0,"|",".",".",".",0,".",".",0,".",".",0,".",".",0,"|"],[".",2,".",".",2,".",".",2,".",".",2,".",".","|",".",0,".",".",0,".",".",0,".",".",0,".",".","|"],[1,".",1,".",".",1,".",".",1,".",".",1,".","|",1,".",1,".",".",1,".",".",1,".",".",1,".","|"],[".",".",".",".",".",".",".",".",".",".",".",".",".","|",".",".",".",".",".",".",".",".",".",".",".",".",".","|"]],[[".",".",".",2,".",".",2,".",".",2,".",".",2,"|",".",".",".",0,".",".",0,".",".",0,".",".",0,"|"],[".",4,".",".",4,".",".",4,".",".",4,".",".","|",".",2,".",".",2,".",".",2,".",".",2,".",".","|"],[4,".",4,".",".",4,".",".",4,".",".",4,".","|",1,".",1,".",".",1,".",".",1,".",".",1,".","|"],[".",".",".",".",".",".",".",".",".",".",".",".",".","|",".",".",".",".",".",".",".",".",".",".",".",".",".","|"]]],"numberofstrings":4,"notes":["A","E","A","G"],"capo":0,"stringnotes":["A4","E4","C4","G3"],"comments":["Stave 1:","Stave 2:"],"timing":[["W","W","W","W","W","W","W","W","W","W","W","W","W",null,"W","W","W","W","W","W","W","W","W","W","W","W","W",null],["W","W","W","W","W","W","W","W","W","W","W","W","W",null,"W","W","W","W","W","W","W","W","W","W","W","W","W"]],"timingvisible":false,"tabcounter":28,"stave":1,"totalstaves":2,"instrument":"ukulele","selectedtuning":"ukulele","version":"13"}
Submitted by jmeeks on Wed, 2022-06-29 08:57