My week in licks!

01234567891011121314151617181920212223
E
B
G
D
A
E
B
0 1 2 3 4 5 6 7 8 9 10 11 12 13 14 15 16 17 18 19 20 21 22 23
(/) Slide Up  (\) Slide Down  (h) Hammer On  (p) Pull Off  (b) Bend (r) Release (v) Vibrato

Monday

E|--10--10--10p6---------------------------------------------------------
B|----------------10--6----------------------------------------15b16r15--
G|-----------------------8--7----------------------3--5/7b8r7------------
D|-----------------------------8\5--3h5p3-----3h5------------------------
A|-----------------------------------------5-----------------------------
E|-----------------------------------------------------------------------

Tuesday

E|---------------------------------------------------------------------------------
B|-----5p0-----8p0-----5p0-----------------------5p0-----8p0------10p0------13--5--
G|----------5------------------5p0-----5p4p0----------5-----------------10---------
D|--7---------------7-------------------------7---------------12----------------7--
A|--------------------------7-------5----------------------------------------------
E|---------------------------------------------------------------------------------

Wednesday

E|----------------------------------13---------------------------------------------------13----------------
B|------------------------------------------13---------------------------------------------------13/15\13--
G|-----------------10p9---------10------------------12------------------10p9---------10--------------------
D|----------10h12--------10h12----------10----------------------10--12--------10h12----------10------------
A|------12--------------------------------------10----------12---------------------------------------------
E|--13--------------------------------------------------13-------------------------------------------------

Thursday

E|--9b10r9--7--10b11--7-----------------------------------
B|-----------------------9b10--7-------------------7------
G|--------------------------------7b8r7p6----------7h8----
D|-----------------------------------------7/9--9-------9\
A|--------------------------------------------------------
E|--------------------------------------------------------

Friday

E|--3----------------------------------------------
B|-----6p3-----3-----------------------------------
G|----------5-----5p3-----3------------------------
D|---------------------5-----5p3-----3-------------
A|--------------------------------5-----5p3--------
E|-------------------------------------------6--3--

Saturday

E|-----12-----11---------|-----12-----11---------|------------------
B|-------------------12--|-------------------12--|-----10--------9--
G|--9------9------9------|--9------9------9------|------------------
D|-----------------------|-----------------------|--7------9/11-----
A|-----------------------|-----------------------|------------------
E|-----------------------|-----------------------|------------------

Sunday

E|------------------5---------------------5--5--|------------------5-------------------|--
B|-------5--8--6/7-----8--4/5-------------5--5--|-------5--8--6/7-----8--4/5--------5--|--
G|--6/7------------------------7p5--------5--5--|--6/7------------------------7--5--5--|--
D|----------------------------------7--7--7-----|-----------------------------------4--|--
A|----------------------------------------------|-----------------------------------5--|--
E|----------------------------------------------|--------------------------------------|--

Sunday cont.

E|------------------5-----------8---------|------------------------------8--|--5--
B|-------5--8--6/7-----8--9/10-----8--10--|-----------------5------------8--|--5--
G|--6/7-------------------------------9---|--9\7p5-----6/7-----4/5-------7--|--5--
D|------------------------------------10--|---------7---------------7p5--6--|--5--
A|----------------------------------------|------------------------------7--|--7--
E|----------------------------------------|---------------------------------|--5--

							http://www.guitartabcreator.com
Chords

Instruments
{"strings":[[[10,10,10,"p",6,".",".",".",".",".",".",".",".",".",".",".",".",".",".",".",".",".",".",".",".",".",".",".",".",".",".",".",".","."],[".",".",".",".",".",10,6,".",".",".",".",".",".",".",".",".",".",".",".",".",".",".",".",".",".",".",".",".",".",15,"b",16,"r",15],[".",".",".",".",".",".",".",8,7,".",".",".",".",".",".",".",".",".",".",".",".",3,5,"/",7,"b",8,"r",7,".",".",".",".","."],[".",".",".",".",".",".",".",".",".",8,"\\",5,3,"h",5,"p",3,".",3,"h",5,".",".",".",".",".",".",".",".",".",".",".",".","."],[".",".",".",".",".",".",".",".",".",".",".",".",".",".",".",".",".",5,".",".",".",".",".",".",".",".",".",".",".",".",".",".",".","."],[".",".",".",".",".",".",".",".",".",".",".",".",".",".",".",".",".",".",".",".",".",".",".",".",".",".",".",".",".",".",".",".",".","."]],[[".",".",".",".",".",".",".",".",".",".",".",".",".",".",".",".",".",".",".",".",".",".",".",".",".",".",".",".",".",".",".",".",".",".",".",".","."],[".",5,"p",0,".",8,"p",0,".",5,"p",0,".",".",".",".",".",".",".",".",".",".",".",5,"p",0,".",8,"p",0,".",10,"p",0,".",13,5],[".",".",".",".",5,".",".",".",".",".",".",".",".",5,"p",0,".",5,"p",4,"p",0,".",".",".",".",5,".",".",".",".",".",".",".",10,".","."],[7,".",".",".",".",".",".",".",7,".",".",".",".",".",".",".",".",".",".",".",".",".",7,".",".",".",".",".",".",".",12,".",".",".",".",".",7],[".",".",".",".",".",".",".",".",".",".",".",".",7,".",".",".",5,".",".",".",".",".",".",".",".",".",".",".",".",".",".",".",".",".",".",".","."],[".",".",".",".",".",".",".",".",".",".",".",".",".",".",".",".",".",".",".",".",".",".",".",".",".",".",".",".",".",".",".",".",".",".",".",".","."]],[[".",".",".",".",".",".",".",".",".",".",".",".",13,".",".",".",".",".",".",".",".",".",".",".",".",".",".",".",13,".",".",".",".",".","."],[".",".",".",".",".",".",".",".",".",".",".",".",".",".",13,".",".",".",".",".",".",".",".",".",".",".",".",".",".",".",13,"/",15,"\\",13],[".",".",".",".",".",10,"p",9,".",".",".",10,".",".",".",".",12,".",".",".",".",10,"p",9,".",".",".",10,".",".",".",".",".",".","."],[".",".",10,"h",12,".",".",".",10,"h",12,".",".",10,".",".",".",".",".",10,12,".",".",".",10,"h",12,".",".",10,".",".",".",".","."],[".",12,".",".",".",".",".",".",".",".",".",".",".",".",".",10,".",".",12,".",".",".",".",".",".",".",".",".",".",".",".",".",".",".","."],[13,".",".",".",".",".",".",".",".",".",".",".",".",".",".",".",".",13,".",".",".",".",".",".",".",".",".",".",".",".",".",".",".",".","."]],[[9,"b",10,"r",9,7,10,"b",11,7,".",".",".",".",".",".",".",".",".",".",".",".",".",".",".",".",".",".",".","."],[".",".",".",".",".",".",".",".",".",".",9,"b",10,7,".",".",".",".",".",".",".",".",".",".",".",7,".",".",".","."],[".",".",".",".",".",".",".",".",".",".",".",".",".",".",7,"b",8,"r",7,"p",6,".",".",".",".",7,"h",8,".","."],[".",".",".",".",".",".",".",".",".",".",".",".",".",".",".",".",".",".",".",".",".",7,"/",9,9,".",".",".",9,"\\"],[".",".",".",".",".",".",".",".",".",".",".",".",".",".",".",".",".",".",".",".",".",".",".",".",".",".",".",".",".","."],[".",".",".",".",".",".",".",".",".",".",".",".",".",".",".",".",".",".",".",".",".",".",".",".",".",".",".",".",".","."]],[[3,".",".",".",".",".",".",".",".",".",".",".",".",".",".",".",".",".",".",".","."],[".",6,"p",3,".",3,".",".",".",".",".",".",".",".",".",".",".",".",".",".","."],[".",".",".",".",5,".",5,"p",3,".",3,".",".",".",".",".",".",".",".",".","."],[".",".",".",".",".",".",".",".",".",5,".",5,"p",3,".",3,".",".",".",".","."],[".",".",".",".",".",".",".",".",".",".",".",".",".",".",5,".",5,"p",3,".","."],[".",".",".",".",".",".",".",".",".",".",".",".",".",".",".",".",".",".",".",6,3]],[[".",12,".",11,".",".","|",".",12,".",11,".",".","|",".",".",".",".",".","."],[".",".",".",".",".",12,"|",".",".",".",".",".",12,"|",".",10,".",".",".",9],[9,".",9,".",9,".","|",9,".",9,".",9,".","|",".",".",".",".",".","."],[".",".",".",".",".",".","|",".",".",".",".",".",".","|",7,".",9,"/",11,"."],[".",".",".",".",".",".","|",".",".",".",".",".",".","|",".",".",".",".",".","."],[".",".",".",".",".",".","|",".",".",".",".",".",".","|",".",".",".",".",".","."]],[[".",".",".",".",".",".",".",".",5,".",".",".",".",".",".",".",".",".",5,5,"|",".",".",".",".",".",".",".",".",5,".",".",".",".",".",".",".","|"],[".",".",".",5,8,6,"/",7,".",8,4,"/",5,".",".",".",".",".",5,5,"|",".",".",".",5,8,6,"/",7,".",8,4,"/",5,".",".",5,"|"],[6,"/",7,".",".",".",".",".",".",".",".",".",".",7,"p",5,".",".",5,5,"|",6,"/",7,".",".",".",".",".",".",".",".",".",".",7,5,5,"|"],[".",".",".",".",".",".",".",".",".",".",".",".",".",".",".",".",7,7,7,".","|",".",".",".",".",".",".",".",".",".",".",".",".",".",".",".",4,"|"],[".",".",".",".",".",".",".",".",".",".",".",".",".",".",".",".",".",".",".",".","|",".",".",".",".",".",".",".",".",".",".",".",".",".",".",".",5,"|"],[".",".",".",".",".",".",".",".",".",".",".",".",".",".",".",".",".",".",".",".","|",".",".",".",".",".",".",".",".",".",".",".",".",".",".",".",".","|"]],[[".",".",".",".",".",".",".",".",5,".",".",".",".",8,".",".","|",".",".",".",".",".",".",".",".",".",".",".",".",".",".",".",".",8,"|",5],[".",".",".",5,8,6,"/",7,".",8,9,"/",10,".",8,10,"|",".",".",".",".",".",".",".",".",".",5,".",".",".",".",".",".",8,"|",5],[6,"/",7,".",".",".",".",".",".",".",".",".",".",".",".",9,"|",9,"\\",7,"p",5,".",6,"/",7,".",4,"/",5,".",".",".",7,"|",5],[".",".",".",".",".",".",".",".",".",".",".",".",".",".",".",10,"|",".",".",".",".",".",7,".",".",".",".",".",".",".",7,"p",5,6,"|",5],[".",".",".",".",".",".",".",".",".",".",".",".",".",".",".",".","|",".",".",".",".",".",".",".",".",".",".",".",".",".",".",".",".",7,"|",7],[".",".",".",".",".",".",".",".",".",".",".",".",".",".",".",".","|",".",".",".",".",".",".",".",".",".",".",".",".",".",".",".",".",".","|",5]]],"numberofstrings":6,"notes":["E","B","G","D","A","E","B"],"capo":0,"stringnotes":["E4","B3","G3","D3","A2","E2"],"comments":["Monday","Tuesday","Wednesday","Thursday","Friday","Saturday","Sunday","Sunday cont."],"timing":[["W","W","W",null,"W","W","W","W","W","W",null,"W","W",null,"W",null,"W","W","W",null,"W","W","W",null,"W",null,"W",null,"W","W",null,"W",null,"W","W"],["W","W",null,"W","W","W",null,"W","W","W",null,"W","W","W",null,"W","W","W",null,"W",null,"W","W","W",null,"W","W","W",null,"W","W","W",null,"W","W","W","W"],["W","W","W",null,"W","W",null,"W","W",null,"W","W","W","W","W","W","W","W","W","W","W","W",null,"W","W",null,"W","W","W","W","W",null,"W",null,"W"],["W",null,"W",null,"W","W","W",null,"W","W","W",null,"W","W","W",null,"W",null,"W",null,"W","W",null,"W","W","W",null,"W","W"],["W","W",null,"W","W","W","W",null,"W","W","W","W",null,"W","W","W","W",null,"W","W","W"],["W","W","W","W","W","W",null,"W","W","W","W","W","W",null,"W","W","W",null,"W","W"],["W",null,"W","W","W","W",null,"W","W","W","W",null,"W","W",null,"W","W","W","W","W",null,"W",null,"W","W","W","W",null,"W","W","W","W",null,"W","W","W","W"],["W",null,"W","W","W","W",null,"W","W","W","W",null,"W","W","W","W",null,"W",null,"W",null,"W","W","W",null,"W","W","W",null,"W","W",null,"W","W",null,"W"]],"timingvisible":false,"tabcounter":36,"stave":7,"totalstaves":8,"instrument":"6guitar","selectedtuning":"6_standard","version":"13"}

Member for

11 months 1 week
Submitted by jmeeks on Fri, 2021-06-18 09:36