Keys to your coffin

01234567891011121314151617181920212223
E
B
G
D
A
E
B
0 1 2 3 4 5 6 7 8 9 10 11 12 13 14 15 16 17 18 19 20 21 22 23
(/) Slide Up  (\) Slide Down  (h) Hammer On  (p) Pull Off  (b) Bend (r) Release (v) Vibrato

Stave 1:

E|-----------------------------------------------
B|-----------------------------------------------
G|--------------7-----------7--------------------
D|--9--9--7--9-----9--7--9-----9--7--------------
A|-----------------------------------7--5--7--5--
E|-----------------------------------------------

Stave 2:

E|-----------------------------------------------
B|-----------------------------------------------
G|--------------7-----------7-----7--9--9--9--7--
D|--9--9--7--9-----9--7--9-----9-----------------
A|-----------------------------------------------
E|-----------------------------------------------

Stave 3:

E|-----------------------------------------------
B|-----------------------------------------------
G|--------------7-----------7--------------------
D|--9--9--7--9-----9--7--9-----9--7--------------
A|-----------------------------------7--5--7--5--
E|-----------------------------------------------

Stave 4:

E|-----------------------------------------
B|-----------------------------------------
G|-----------------------------------9--7--
D|-----------------------------7--9--------
A|-----------------5--7--7--9--------------
E|--7--7--5--7--7--------------------------

							http://www.guitartabcreator.com
Chords

Instruments
{"strings":[[[".",".",".",".",".",".",".",".",".",".",".",".",".",".","."],[".",".",".",".",".",".",".",".",".",".",".",".",".",".","."],[".",".",".",".",7,".",".",".",7,".",".",".",".",".","."],[9,9,7,9,".",9,7,9,".",9,7,".",".",".","."],[".",".",".",".",".",".",".",".",".",".",".",7,5,7,5],[".",".",".",".",".",".",".",".",".",".",".",".",".",".","."]],[[".",".",".",".",".",".",".",".",".",".",".",".",".",".","."],[".",".",".",".",".",".",".",".",".",".",".",".",".",".","."],[".",".",".",".",7,".",".",".",7,".",7,9,9,9,7],[9,9,7,9,".",9,7,9,".",9,".",".",".",".","."],[".",".",".",".",".",".",".",".",".",".",".",".",".",".","."],[".",".",".",".",".",".",".",".",".",".",".",".",".",".","."]],[[".",".",".",".",".",".",".",".",".",".",".",".",".",".","."],[".",".",".",".",".",".",".",".",".",".",".",".",".",".","."],[".",".",".",".",7,".",".",".",7,".",".",".",".",".","."],[9,9,7,9,".",9,7,9,".",9,7,".",".",".","."],[".",".",".",".",".",".",".",".",".",".",".",7,5,7,5],[".",".",".",".",".",".",".",".",".",".",".",".",".",".","."]],[[".",".",".",".",".",".",".",".",".",".",".",".","."],[".",".",".",".",".",".",".",".",".",".",".",".","."],[".",".",".",".",".",".",".",".",".",".",".",9,7],[".",".",".",".",".",".",".",".",".",7,9,".","."],[".",".",".",".",".",5,7,7,9,".",".",".","."],[7,7,5,7,7,".",".",".",".",".",".",".","."]]],"numberofstrings":6,"notes":["E","B","G","D","A","E","B"],"capo":0,"stringnotes":["E4","B3","G3","D3","A2","E2"],"comments":["Stave 1:","Stave 2:","Stave 3:","Stave 4:"],"timing":[["W","W","W","W","W","W","W","W","W","W","W","W","W","W","W"],["W","W","W","W","W","W","W","W","W","W","W","W","W","W","W"],["W","W","W","W","W","W","W","W","W","W","W","W","W","W","W"],["W","W","W","W","W","W","W","W","W","W","W","W","W"]],"timingvisible":false,"tabcounter":13,"stave":3,"totalstaves":4,"instrument":"6guitar","selectedtuning":"6_standard","version":"13"}

Member for

11 months 1 week
Submitted by jmeeks on Thu, 2021-06-03 07:53