Hope

01234567891011121314151617181920212223
E
B
G
D
A
E
B
0 1 2 3 4 5 6 7 8 9 10 11 12 13 14 15 16 17 18 19 20 21 22 23
(/) Slide Up  (\) Slide Down  (h) Hammer On  (p) Pull Off  (b) Bend (r) Release (v) Vibrato

Stave 1:

E|----------------------------------:|--
B|--5--3--5--3--0--0--0--0--1p0-----:|--
G|-------------------------------2--:|--
D|----------------------------------:|--
A|----------------------------------:|--
E|----------------------------------:|--

Stave 2:

E|--0--0--0--0-----0--0--0--1--0-----0--0--0--0-----0--0--0--1--0-----:|--
B|--------------1-----------------1--------------1-----------------1--:|--
G|--------------------------------------------------------------------:|--
D|--------------------------------------------------------------------:|--
A|--------------------------------------------------------------------:|--
E|--------------------------------------------------------------------:|--

							http://www.guitartabcreator.com
Chords

Instruments
{"strings":[[[".",".",".",".",".",".",".",".",".",".",".",".",":|"],[5,3,5,3,0,0,0,0,1,"p",0,".",":|"],[".",".",".",".",".",".",".",".",".",".",".",2,":|"],[".",".",".",".",".",".",".",".",".",".",".",".",":|"],[".",".",".",".",".",".",".",".",".",".",".",".",":|"],[".",".",".",".",".",".",".",".",".",".",".",".",":|"]],[[0,0,0,0,".",0,0,0,1,0,".",0,0,0,0,".",0,0,0,1,0,".",":|"],[".",".",".",".",1,".",".",".",".",".",1,".",".",".",".",1,".",".",".",".",".",1,":|"],[".",".",".",".",".",".",".",".",".",".",".",".",".",".",".",".",".",".",".",".",".",".",":|"],[".",".",".",".",".",".",".",".",".",".",".",".",".",".",".",".",".",".",".",".",".",".",":|"],[".",".",".",".",".",".",".",".",".",".",".",".",".",".",".",".",".",".",".",".",".",".",":|"],[".",".",".",".",".",".",".",".",".",".",".",".",".",".",".",".",".",".",".",".",".",".",":|"]]],"numberofstrings":6,"notes":["E","B","G","D","A","E","B"],"capo":0,"stringnotes":["E4","B3","G3","D3","A2","E2"],"comments":["Stave 1:","Stave 2:"],"timing":[["W","W","W","W","W","W","W","W","W",null,"W","W"],["W","W","W","W","W","W","W","W","W","W","W","W","W","W","W","W","W","W","W","W","W","W"]],"timingvisible":false,"tabcounter":23,"stave":1,"totalstaves":2,"instrument":"6guitar","selectedtuning":"6_standard","version":"13"}

Member for

11 months 1 week
Submitted by jmeeks on Thu, 2021-11-04 11:09