Hit the road jack w/ intervals

01234567891011121314151617181920212223
E
B
G
D
A
E
B
0 1 2 3 4 5 6 7 8 9 10 11 12 13 14 15 16 17 18 19 20 21 22 23
(/) Slide Up  (\) Slide Down  (h) Hammer On  (p) Pull Off  (b) Bend (r) Release (v) Vibrato

Bass line

E|--------|--------|-----------|--------:|--
B|--------|--------|-----------|--------:|--
G|--------|--------|-----------|--------:|--
D|--------|--------|-----------|--------:|--
A|--------|--------|-----------|--------:|--
E|--5--3--|--1--0--|--5--5--3--|--1--0--:|--

5th

E|--------|--------|-----------|--------:|--
B|--------|--------|-----------|--------:|--
G|--------|--------|-----------|--------:|--
D|--------|--------|-----------|--------:|--
A|--7--5--|--3--2--|--7--7--5--|--3--2--:|--
E|--------|--------|-----------|--------:|--

3rds

E|--------|--------|-----------|--------:|--
B|--------|--------|-----------|--------:|--
G|--5--4--|--2--1--|--5--5--4--|--2--1--:|--
D|--------|--------|-----------|--------:|--
A|--------|--------|-----------|--------:|--
E|--------|--------|-----------|--------:|--

Octave

E|--5--3--|--1--0--|--5--5--3--|--1--0--:|--
B|--------|--------|-----------|--------:|--
G|--------|--------|-----------|--------:|--
D|--------|--------|-----------|--------:|--
A|--------|--------|-----------|--------:|--
E|--------|--------|-----------|--------:|--

4ths/5ths

E|--5--3--|--1--0--|--5--5--3--|--1--0--:|--
B|--5--3--|--1--0--|--5--5--3--|--1--0--:|--
G|--------|--------|-----------|--------:|--
D|--------|--------|-----------|--------:|--
A|--------|--------|-----------|--------:|--
E|--------|--------|-----------|--------:|--

							http://www.guitartabcreator.com
Chords

Instruments
{"strings":[[[".",".","|",".",".","|",".",".",".","|",".",".",":|"],[".",".","|",".",".","|",".",".",".","|",".",".",":|"],[".",".","|",".",".","|",".",".",".","|",".",".",":|"],[".",".","|",".",".","|",".",".",".","|",".",".",":|"],[".",".","|",".",".","|",".",".",".","|",".",".",":|"],[5,3,"|",1,0,"|",5,5,3,"|",1,0,":|"]],[[".",".","|",".",".","|",".",".",".","|",".",".",":|"],[".",".","|",".",".","|",".",".",".","|",".",".",":|"],[".",".","|",".",".","|",".",".",".","|",".",".",":|"],[".",".","|",".",".","|",".",".",".","|",".",".",":|"],[7,5,"|",3,2,"|",7,7,5,"|",3,2,":|"],[".",".","|",".",".","|",".",".",".","|",".",".",":|"]],[[".",".","|",".",".","|",".",".",".","|",".",".",":|"],[".",".","|",".",".","|",".",".",".","|",".",".",":|"],[5,4,"|",2,1,"|",5,5,4,"|",2,1,":|"],[".",".","|",".",".","|",".",".",".","|",".",".",":|"],[".",".","|",".",".","|",".",".",".","|",".",".",":|"],[".",".","|",".",".","|",".",".",".","|",".",".",":|"]],[[5,3,"|",1,0,"|",5,5,3,"|",1,0,":|"],[".",".","|",".",".","|",".",".",".","|",".",".",":|"],[".",".","|",".",".","|",".",".",".","|",".",".",":|"],[".",".","|",".",".","|",".",".",".","|",".",".",":|"],[".",".","|",".",".","|",".",".",".","|",".",".",":|"],[".",".","|",".",".","|",".",".",".","|",".",".",":|"]],[[5,3,"|",1,0,"|",5,5,3,"|",1,0,":|"],[5,3,"|",1,0,"|",5,5,3,"|",1,0,":|"],[".",".","|",".",".","|",".",".",".","|",".",".",":|"],[".",".","|",".",".","|",".",".",".","|",".",".",":|"],[".",".","|",".",".","|",".",".",".","|",".",".",":|"],[".",".","|",".",".","|",".",".",".","|",".",".",":|"]]],"numberofstrings":6,"notes":["E","B","G","D","A","E","B"],"capo":0,"stringnotes":["E4","B3","G3","D3","A2","E2"],"comments":["Bass line","5th","3rds","Octave","4ths/5ths"],"timing":[["W","W",null,"W","W",null,"W","W","W",null,"W","W"],["W","W",null,"W","W",null,"W","W","W",null,"W","W"],["W","W",null,"W","W",null,"W","W","W",null,"W","W"],["W","W",null,"W","W",null,"W","W","W",null,"W","W"],["W","W",null,"W","W",null,"W","W","W",null,"W","W"]],"timingvisible":false,"tabcounter":13,"stave":4,"totalstaves":5,"instrument":"6guitar","selectedtuning":"6_standard","version":"13"}

Member for

11 months 1 week
Submitted by jmeeks on Tue, 2021-06-29 03:07