Harmonised 3rds + 5ths

01234567891011121314151617181920212223
E
B
G
D
A
E
B
0 1 2 3 4 5 6 7 8 9 10 11 12 13 14 15 16 17 18 19 20 21 22 23
(/) Slide Up  (\) Slide Down  (h) Hammer On  (p) Pull Off  (b) Bend (r) Release (v) Vibrato

Stave 1:

E|-------------------------
B|--3--5--7--8--10--12--1--
G|-------------------------
D|-------------------------
A|-------------------------
E|--3--5--7--8--10--12--2--

Stave 2:

E|-------------------------
B|--3--5--7--8--10--12--1--
G|--4--5--7--9--11--12--2--
D|-------------------------
A|-------------------------
E|--3--5--7--8--10--12--2--

							http://www.guitartabcreator.com
Chords

Instruments
{"strings":[[[".",".",".",".",".",".","."],[3,5,7,8,10,12,1],[".",".",".",".",".",".","."],[".",".",".",".",".",".","."],[".",".",".",".",".",".","."],[3,5,7,8,10,12,2]],[[".",".",".",".",".",".","."],[3,5,7,8,10,12,1],[4,5,7,9,11,12,2],[".",".",".",".",".",".","."],[".",".",".",".",".",".","."],[3,5,7,8,10,12,2]]],"numberofstrings":6,"notes":["E","B","G","D","A","E","B"],"capo":0,"stringnotes":["E4","B3","G3","D3","A2","E2"],"comments":["Stave 1:","Stave 2:"],"timing":[["W","W","W","W","W","W","W"],["W","W","W","W","W","W","W"]],"timingvisible":false,"tabcounter":6,"stave":1,"totalstaves":2,"instrument":"6guitar","selectedtuning":"6_standard","version":"13"}

Member for

11 months 1 week
Submitted by jmeeks on Wed, 2021-09-15 05:58