Hacking the modes: Mixolydian

01234567891011121314151617181920212223
E
B
G
D
A
E
B
0 1 2 3 4 5 6 7 8 9 10 11 12 13 14 15 16 17 18 19 20 21 22 23
(/) Slide Up  (\) Slide Down  (h) Hammer On  (p) Pull Off  (b) Bend (r) Release (v) Vibrato

Position 1

E|-------------------------|----------------------|----------8--10--12--13--15--17--15--|--
B|-------------------------|-----------------6/8--|--10--12-----------------------------|--
G|-------------------------|--------5--7--9-------|-------------------------------------|--
D|--------------------3/5--|--7--9----------------|-------------------------------------|--
A|-----------3--5--7-------|----------------------|-------------------------------------|--
E|--3--5--7----------------|----------------------|-------------------------------------|--

Position 2

E|---------------------------------|----------------------13/15--|--15----------------------------------------------------------|--
B|---------------------------------|----------13--15--17---------|------18--17--15----------------------------------------------|--
G|--------------------------10/12--|--14--16---------------------|------------------17--16--14----------------------------------|--
D|--------------10--12--14---------|-----------------------------|------------------------------17--15--14----------------------|--
A|--10--12--14---------------------|-----------------------------|------------------------------------------17--15--14----------|--
E|---------------------------------|-----------------------------|------------------------------------------------------17--15--|--

Lick!

E|-----------8h10h12/17--13------------15--:|--
B|--8h10h12------------------15-----x------:|--
G|-------------------------------x---------:|--
D|-----------------------------------------:|--
A|-----------------------------------------:|--
E|-----------------------------------------:|--

							http://www.guitartabcreator.com
Chords

Instruments
{"strings":[[[".",".",".",".",".",".",".",".",".","|",".",".",".",".",".",".",".",".","|",".",".",8,10,12,13,15,17,15,"|"],[".",".",".",".",".",".",".",".",".","|",".",".",".",".",".",6,"/",8,"|",10,12,".",".",".",".",".",".",".","|"],[".",".",".",".",".",".",".",".",".","|",".",".",5,7,9,".",".",".","|",".",".",".",".",".",".",".",".",".","|"],[".",".",".",".",".",".",3,"/",5,"|",7,9,".",".",".",".",".",".","|",".",".",".",".",".",".",".",".",".","|"],[".",".",".",3,5,7,".",".",".","|",".",".",".",".",".",".",".",".","|",".",".",".",".",".",".",".",".",".","|"],[3,5,7,".",".",".",".",".",".","|",".",".",".",".",".",".",".",".","|",".",".",".",".",".",".",".",".",".","|"]],[[".",".",".",".",".",".",".",".",".","|",".",".",".",".",".",13,"/",15,"|",15,".",".",".",".",".",".",".",".",".",".",".",".",".",".","|"],[".",".",".",".",".",".",".",".",".","|",".",".",13,15,17,".",".",".","|",".",18,17,15,".",".",".",".",".",".",".",".",".",".",".","|"],[".",".",".",".",".",".",10,"/",12,"|",14,16,".",".",".",".",".",".","|",".",".",".",".",17,16,14,".",".",".",".",".",".",".",".","|"],[".",".",".",10,12,14,".",".",".","|",".",".",".",".",".",".",".",".","|",".",".",".",".",".",".",".",17,15,14,".",".",".",".",".","|"],[10,12,14,".",".",".",".",".",".","|",".",".",".",".",".",".",".",".","|",".",".",".",".",".",".",".",".",".",".",17,15,14,".",".","|"],[".",".",".",".",".",".",".",".",".","|",".",".",".",".",".",".",".",".","|",".",".",".",".",".",".",".",".",".",".",".",".",".",17,15,"|"]],[[".",".",".",".",".",8,"h",10,"h",12,"/",17,13,".",".",".",15,":|"],[8,"h",10,"h",12,".",".",".",".",".",".",".",".",15,".","x16",".",":|"],[".",".",".",".",".",".",".",".",".",".",".",".",".",".","x15",".",".",":|"],[".",".",".",".",".",".",".",".",".",".",".",".",".",".",".",".",".",":|"],[".",".",".",".",".",".",".",".",".",".",".",".",".",".",".",".",".",":|"],[".",".",".",".",".",".",".",".",".",".",".",".",".",".",".",".",".",":|"]]],"numberofstrings":6,"notes":["E","B","G","D","A","E","B"],"capo":0,"stringnotes":["E4","B3","G3","D3","A2","E2"],"comments":["Position 1","Position 2","Lick!"],"timing":[["W","W","W","W","W","W","W",null,"W",null,"W","W","W","W","W","W",null,"W",null,"W","W","W","W","W","W","W","W","W"],["W","W","W","W","W","W","W",null,"W",null,"W","W","W","W","W","W",null,"W",null,"W","W","W","W","W","W","W","W","W","W","W","W","W","W","W"],["W",null,"W",null,"W","W",null,"W",null,"W",null,"W","W","W","W","W","W"]],"timingvisible":false,"tabcounter":18,"stave":2,"totalstaves":3,"instrument":"6guitar","selectedtuning":"6_standard","version":"13"}

Member for

11 months 1 week
Submitted by jmeeks on Sun, 2021-09-12 10:33