Flip Flop Phil

01234567891011121314151617181920212223
E
B
G
D
A
E
B
0 1 2 3 4 5 6 7 8 9 10 11 12 13 14 15 16 17 18 19 20 21 22 23
(/) Slide Up  (\) Slide Down  (h) Hammer On  (p) Pull Off  (b) Bend (r) Release (v) Vibrato

Stave 1:

E|--7--7--7-----6--6--6-----7--7--|--
B|--------------------------------|--
G|--------------------------------|--
D|--------------------------------|--
A|--------------------------------|--
E|--------------------------------|--

Stave 2:

E|--3--2--0--2--0--3--|--7--7--
B|--------------------|--------
G|--------------------|--------
D|--------------------|--------
A|--------------------|--------
E|--------------------|--------

Stave 3:

E|--3--3--3-----2--2--2-----------
B|--------------------------0--0--
G|--------------------------------
D|--------------------------------
A|--------------------------------
E|--------------------------------

							http://www.guitartabcreator.com
Chords

Instruments
{"strings":[[[7,7,7,"_",6,6,6,"_",7,7,"|"],[".",".",".","_",".",".",".","_",".",".","|"],[".",".",".","_",".",".",".","_",".",".","|"],[".",".",".","_",".",".",".","_",".",".","|"],[".",".",".","_",".",".",".","_",".",".","|"],[".",".",".","_",".",".",".","_",".",".","|"]],[[3,2,0,2,0,3,"|",7,7],[".",".",".",".",".",".","|",".","."],[".",".",".",".",".",".","|",".","."],[".",".",".",".",".",".","|",".","."],[".",".",".",".",".",".","|",".","."],[".",".",".",".",".",".","|",".","."]],[[3,3,3,"_",2,2,2,"_",".","."],[".",".",".","_",".",".",".","_",0,0],[".",".",".","_",".",".",".","_",".","."],[".",".",".","_",".",".",".","_",".","."],[".",".",".","_",".",".",".","_",".","."],[".",".",".","_",".",".",".","_",".","."]]],"numberofstrings":6,"notes":["E","B","G","D","A","E","B"],"capo":0,"stringnotes":["E4","B3","G3","D3","A2","E2"],"comments":["Stave 1:","Stave 2:","Stave 3:"],"timing":[["W","W","W","W","W","W","W","W","W","W"],["W","W","W","W","W","W",null,"W","W"],["W","W","W","W","W","W","W","W","W","W"]],"timingvisible":false,"tabcounter":10,"stave":2,"totalstaves":3,"instrument":"6guitar","selectedtuning":"6_standard","version":"13"}

Member for

11 months 1 week
Submitted by jmeeks on Thu, 2021-09-23 10:59