FERGS... POWERLAND

01234567891011121314151617181920212223
E
B
G
D
A
E
B
0 1 2 3 4 5 6 7 8 9 10 11 12 13 14 15 16 17 18 19 20 21 22 23
(/) Slide Up  (\) Slide Down  (h) Hammer On  (p) Pull Off  (b) Bend (r) Release (v) Vibrato

Stave 1:

E|--------------------------|--------------------------|--------------------------|--------------------------|--
B|--------------------------|--------------------------|--------------------------|--------------------------|--
G|--------------------------|--------------------------|--------------------------|--------------------------|--
D|--------------------------|--------------------------|--------------------------|--------------------------|--
A|--3--3--3--3--3--3--3--3--|--3--3--3--3--3--3--3--3--|--5--5--5--5--5--5--5--5--|--5--5--5--5--5--5--5--5--|--
E|--1--1--1--1--1--1--1--1--|--1--1--1--1--1--1--1--1--|--3--3--3--3--3--3--3--3--|--3--3--3--3--3--3--3--3--|--

Stave 2:

E|--------------------------|--------------------------|--------------------|--
B|--------------------------|--------------------------|--------------------|--
G|--------------------------|--------------------------|--------------------|--
D|--------------------------|--------------------------|--------------------|--
A|--7--7--7--7--7--7--7--7--|--7--7--7--7--7--7--7--7--|--5--5--5--5--5--5--|--
E|--5--5--5--5--5--5--5--5--|--5--5--5--5--5--5--5--5--|--3--3--3--3--3--3--|--

Stave 3:

E|--------------------------|--------------------------|--------------------------|--------------------------|-----
B|--------------------------|--------------------------|--------------------------|--------------------------|-----
G|--------------------------|--------------------------|--------------------------|--------------------------|-----
D|--------------------------|--------------------------|--------------------------|--------------------------|-----
A|-----2-----2-----2-----2--|-----4-----4-----4-----4--|-----5-----5-----5-----5--|-----4-----4-----4-----4--|-----
E|--3-----3-----3-----3-----|--5-----5-----5-----5-----|--7-----7-----7-----7-----|--5-----5-----5-----5-----|-----

Stave 4:

E|-----------3-----------3--|-----------5-----------5--|-----------7-----------7--|-----------5-----------5--|--
B|-----3-----------3--------|-----5-----------5--------|-----7-----------7--------|-----5-----------5--------|--
G|--4-----4-----4-----4-----|--6-----6-----6-----6-----|--7-----7-----7-----7-----|--6-----6-----6-----6-----|--
D|--------------------------|--------------------------|--------------------------|--------------------------|--
A|--------------------------|--------------------------|--------------------------|--------------------------|--
E|--------------------------|--------------------------|--------------------------|--------------------------|--

							http://www.guitartabcreator.com
Chords

Instruments
{"strings":[[[".",".",".",".",".",".",".",".","|",".",".",".",".",".",".",".",".","|",".",".",".",".",".",".",".",".","|",".",".",".",".",".",".",".",".","|"],[".",".",".",".",".",".",".",".","|",".",".",".",".",".",".",".",".","|",".",".",".",".",".",".",".",".","|",".",".",".",".",".",".",".",".","|"],[".",".",".",".",".",".",".",".","|",".",".",".",".",".",".",".",".","|",".",".",".",".",".",".",".",".","|",".",".",".",".",".",".",".",".","|"],[".",".",".",".",".",".",".",".","|",".",".",".",".",".",".",".",".","|",".",".",".",".",".",".",".",".","|",".",".",".",".",".",".",".",".","|"],[3,3,3,3,3,3,3,3,"|",3,3,3,3,3,3,3,3,"|",5,5,5,5,5,5,5,5,"|",5,5,5,5,5,5,5,5,"|"],[1,1,1,1,1,1,1,1,"|",1,1,1,1,1,1,1,1,"|",3,3,3,3,3,3,3,3,"|",3,3,3,3,3,3,3,3,"|"]],[[".",".",".",".",".",".",".",".","|",".",".",".",".",".",".",".",".","|",".",".",".",".",".",".","|"],[".",".",".",".",".",".",".",".","|",".",".",".",".",".",".",".",".","|",".",".",".",".",".",".","|"],[".",".",".",".",".",".",".",".","|",".",".",".",".",".",".",".",".","|",".",".",".",".",".",".","|"],[".",".",".",".",".",".",".",".","|",".",".",".",".",".",".",".",".","|",".",".",".",".",".",".","|"],[7,7,7,7,7,7,7,7,"|",7,7,7,7,7,7,7,7,"|",5,5,5,5,5,5,"|"],[5,5,5,5,5,5,5,5,"|",5,5,5,5,5,5,5,5,"|",3,3,3,3,3,3,"|"]],[[".",".",".",".",".",".",".",".","|",".",".",".",".",".",".",".",".","|",".",".",".",".",".",".",".",".","|",".",".",".",".",".",".",".",".","|","_"],[".",".",".",".",".",".",".",".","|",".",".",".",".",".",".",".",".","|",".",".",".",".",".",".",".",".","|",".",".",".",".",".",".",".",".","|","_"],[".",".",".",".",".",".",".",".","|",".",".",".",".",".",".",".",".","|",".",".",".",".",".",".",".",".","|",".",".",".",".",".",".",".",".","|","_"],[".",".",".",".",".",".",".",".","|",".",".",".",".",".",".",".",".","|",".",".",".",".",".",".",".",".","|",".",".",".",".",".",".",".",".","|","_"],[".",2,".",2,".",2,".",2,"|",".",4,".",4,".",4,".",4,"|",".",5,".",5,".",5,".",5,"|",".",4,".",4,".",4,".",4,"|","_"],[3,".",3,".",3,".",3,".","|",5,".",5,".",5,".",5,".","|",7,".",7,".",7,".",7,".","|",5,".",5,".",5,".",5,".","|","_"]],[[".",".",".",3,".",".",".",3,"|",".",".",".",5,".",".",".",5,"|",".",".",".",7,".",".",".",7,"|",".",".",".",5,".",".",".",5,"|"],[".",3,".",".",".",3,".",".","|",".",5,".",".",".",5,".",".","|",".",7,".",".",".",7,".",".","|",".",5,".",".",".",5,".",".","|"],[4,".",4,".",4,".",4,".","|",6,".",6,".",6,".",6,".","|",7,".",7,".",7,".",7,".","|",6,".",6,".",6,".",6,".","|"],[".",".",".",".",".",".",".",".","|",".",".",".",".",".",".",".",".","|",".",".",".",".",".",".",".",".","|",".",".",".",".",".",".",".",".","|"],[".",".",".",".",".",".",".",".","|",".",".",".",".",".",".",".",".","|",".",".",".",".",".",".",".",".","|",".",".",".",".",".",".",".",".","|"],[".",".",".",".",".",".",".",".","|",".",".",".",".",".",".",".",".","|",".",".",".",".",".",".",".",".","|",".",".",".",".",".",".",".",".","|"]]],"numberofstrings":6,"notes":["E","B","G","D","A","E","B"],"capo":0,"stringnotes":["E4","B3","G3","D3","A2","E2"],"comments":["Stave 1:","Stave 2:","Stave 3:","Stave 4:"],"timing":[["W","W","W","W","W","W","W","W",null,"W","W","W","W","W","W","W","W",null,"W","W","W","W","W","W","W","W",null,"W","W","W","W","W","W","W","W"],["W","W","W","W","W","W","W","W",null,"W","W","W","W","W","W","W","W",null,"W","W","W","W","W","W"],["W","W","W","W","W","W","W","W",null,"W","W","W","W","W","W","W","W",null,"W","W","W","W","W","W","W","W",null,"W","W","W","W","W","W","W","W",null,"W"],["W","W","W","W","W","W","W","W",null,"W","W","W","W","W","W","W","W",null,"W","W","W","W","W","W","W","W",null,"W","W","W","W","W","W","W","W"]],"timingvisible":false,"tabcounter":36,"stave":3,"totalstaves":4,"instrument":"6guitar","selectedtuning":"6_standard","version":"13"}

Member for

11 months 1 week
Submitted by jmeeks on Sat, 2021-07-24 06:48