E major split triads/quads

01234567891011121314151617181920212223
E
B
G
D
A
E
B
0 1 2 3 4 5 6 7 8 9 10 11 12 13 14 15 16 17 18 19 20 21 22 23
(/) Slide Up  (\) Slide Down  (h) Hammer On  (p) Pull Off  (b) Bend (r) Release (v) Vibrato

Triads

E|------------------------------------------------------12------
B|-----------------------5--------9---------12------------------
G|-----1--------4-------------------------------------------13--
D|-----------------2--------6--------9----------14--------------
A|--------2--------------------7--------11----------14----------
E|--0--------4--------7-----------------------------------------

Quadrads. Major 7s

E|----------------------------------------------------------------------12------11--
B|-----------------4-----------5-----------9------------12--------------------------
G|-----1-----------------4-----------8-----------8--------------------------13------
D|-----------1--------2-----------6-----------9-------------14--13------------------
A|--------2-----------------------------7-----------11--------------14--------------
E|--0-----------4-----------7-------------------------------------------------------

Quadrads. Dominant 7s

E|------------------------------------------------------10-------------12----------
B|-----------------3-----------5-----------9-------------------12--------------15--
G|-----1-----------------4-----------7-----------7-------------------------13------
D|-----------0--------2-----------6-----------9-------------9----------------------
A|--------2-----------------------------7-----------11-------------14--------------
E|--0-----------4-----------7------------------------------------------------------

							http://www.guitartabcreator.com
Chords

Instruments
{"strings":[[[".",".",".",".",".",".",".",".",".",".",".",".",".",".",".",".",12,"."],[".",".",".",".",".",".",".",5,".",".",9,".",".",12,".",".",".","."],[".",1,".",".",4,".",".",".",".",".",".",".",".",".",".",".",".",13],[".",".",".",".",".",2,".",".",6,".",".",9,".",".",14,".",".","."],[".",".",2,".",".",".",".",".",".",7,".",".",11,".",".",14,".","."],[0,".",".",4,".",".",7,".",".",".",".",".",".",".",".",".",".","."]],[[".",".",".",".",".",".",".",".",".",".",".",".",".",".",".",".",".",".",".",".",".",12,".",11],[".",".",".",".",".",4,".",".",".",5,".",".",".",9,".",".",".",12,".",".",".",".",".","."],[".",1,".",".",".",".",".",4,".",".",".",8,".",".",".",8,".",".",".",".",".",".",13,"."],[".",".",".",1,".",".",2,".",".",".",6,".",".",".",9,".",".",".",14,13,".",".",".","."],[".",".",2,".",".",".",".",".",".",".",".",".",7,".",".",".",11,".",".",".",14,".",".","."],[0,".",".",".",4,".",".",".",7,".",".",".",".",".",".",".",".",".",".",".",".",".",".","."]],[[".",".",".",".",".",".",".",".",".",".",".",".",".",".",".",".",".",10,".",".",".",12,".","."],[".",".",".",".",".",3,".",".",".",5,".",".",".",9,".",".",".",".",".",12,".",".",".",15],[".",1,".",".",".",".",".",4,".",".",".",7,".",".",".",7,".",".",".",".",".",".",13,"."],[".",".",".",0,".",".",2,".",".",".",6,".",".",".",9,".",".",".",9,".",".",".",".","."],[".",".",2,".",".",".",".",".",".",".",".",".",7,".",".",".",11,".",".",".",14,".",".","."],[0,".",".",".",4,".",".",".",7,".",".",".",".",".",".",".",".",".",".",".",".",".",".","."]]],"numberofstrings":6,"notes":["E","B","G","D","A","E","B"],"capo":0,"stringnotes":["E4","B3","G3","D3","A2","E2"],"comments":["Triads","Quadrads. Major 7s","Quadrads. Dominant 7s","Stave 4:","Quadrads. Dominant 7s"],"timing":[["W","W","W","W","W","W","W","W","W","W","W","W","W","W","W","W","W","W",null,null,null,null,null,null,null,null,null,null,null,"W"],["W","W","W","W","W","W","W","W","W","W","W","W","W","W","W","W","W","W","W","W","W","W"],["W","W","W","W","W","W","W","W","W","W","W","W","W","W","W","W","W","W","W","W","W","W","W","W"],["W","W","W","W","W","W","W","W","W","W","W","W","W","W","W","W","W","W","W","W","W","W","W","W","W","W","W","W","W"],["W","W","W","W","W","W","W","W","W","W","W","W","W","W","W","W","W","W","W","W","W","W","W","W"]],"timingvisible":false,"tabcounter":24,"stave":1,"totalstaves":3,"instrument":"6guitar","selectedtuning":"6_standard","version":"13"}

Member for

11 months 1 week
Submitted by jmeeks on Tue, 2021-05-18 05:28