Blues bass in G

01234567891011121314151617181920212223
E
B
G
D
A
E
B
0 1 2 3 4 5 6 7 8 9 10 11 12 13 14 15 16 17 18 19 20 21 22 23
(/) Slide Up  (\) Slide Down  (h) Hammer On  (p) Pull Off  (b) Bend (r) Release (v) Vibrato

Stave 1:

G|--------------------------|--------------------------|-----------2--3--2--------|--------------------------|--
D|-----------2--3--2--------|-----------2--3--2--------|-----2--5-----------5--2--|-----------2--3--2--------|--
A|-----2--5-----------5--2--|-----2--5-----------5--2--|--3-----------------------|-----2--5-----------5--2--|--
E|--3-----------------------|--3-----------------------|--------------------------|--3-----------------------|--

Stave 2:

G|-----------4--5--4--------|-----------2--3--2--------|--------------------------|-----------------------|--
D|-----4--7-----------7--4--|-----2--5-----------5--2--|-----------2--3--2--------|-----------------------|--
A|--5-----------------------|--3-----------------------|-----2--5-----------5--2--|--5--5--5--5--5--5--5--|--
E|--------------------------|--------------------------|--3-----------------------|-----------------------|--

							http://www.guitartabcreator.com
Chords

Instruments
{"strings":[[[".",".",".",".",".",".",".",".","|",".",".",".",".",".",".",".",".","|",".",".",".",2,3,2,".",".","|",".",".",".",".",".",".",".",".","|"],[".",".",".",2,3,2,".",".","|",".",".",".",2,3,2,".",".","|",".",2,5,".",".",".",5,2,"|",".",".",".",2,3,2,".",".","|"],[".",2,5,".",".",".",5,2,"|",".",2,5,".",".",".",5,2,"|",3,".",".",".",".",".",".",".","|",".",2,5,".",".",".",5,2,"|"],[3,".",".",".",".",".",".",".","|",3,".",".",".",".",".",".",".","|",".",".",".",".",".",".",".",".","|",3,".",".",".",".",".",".",".","|"]],[[".",".",".",4,5,4,".",".","|",".",".",".",2,3,2,".",".","|",".",".",".",".",".",".",".",".","|",".",".",".",".",".",".",".","|"],[".",4,7,".",".",".",7,4,"|",".",2,5,".",".",".",5,2,"|",".",".",".",2,3,2,".",".","|",".",".",".",".",".",".",".","|"],[5,".",".",".",".",".",".",".","|",3,".",".",".",".",".",".",".","|",".",2,5,".",".",".",5,2,"|",5,5,5,5,5,5,5,"|"],[".",".",".",".",".",".",".",".","|",".",".",".",".",".",".",".",".","|",3,".",".",".",".",".",".",".","|",".",".",".",".",".",".",".","|"]]],"numberofstrings":4,"notes":["G","D","A","E"],"capo":0,"stringnotes":["G2","D2","A1","E1"],"comments":["Stave 1:","Stave 2:"],"timing":[["W","W","W","W","W","W","W","W",null,"W","W","W","W","W","W","W","W",null,"W","W","W","W","W","W","W","W",null,"W","W","W","W","W","W","W","W"],["W","W","W","W","W","W","W","W",null,"W","W","W","W","W","W","W","W",null,"W","W","W","W","W","W","W","W",null,"W","W","W","W","W","W","W"]],"timingvisible":false,"tabcounter":35,"stave":1,"totalstaves":2,"instrument":"4bass","selectedtuning":"4bass","version":"13"}

Member for

9 months
Submitted by jmeeks on Mon, 2021-11-15 05:00