Sound will begin in 5 seconds

Kioku

01234567891011121314151617181920212223
E
B
G
D
A
E
B
0 1 2 3 4 5 6 7 8 9 10 11 12 13 14 15 16 17 18 19 20 21 22 23
Song Science #1: How Pros Use 6 Chords to Write Hit Songs
(/) Slide Up  (\) Slide Down  (h) Hammer On  (p) Pull Off  (b) Bend (r) Release (v) Vibrato

Stave 1:

E|-------------------------------------------------------------------------------------------
B|---------------------------------------------------10--12--10------------10----------------
G|-------------11---------------------------------9--------------------11--------------------
D|--9--7--9--------11----12--11------9----11--12--------------------9----------11------9-----
A|-------------------------------12------------------------------------------------12--------
E|-------------------------------------------------------------------------------------------

Stave 2:

E|--_----------------------------------------------------------------------------------------------
B|--_----------------------------------------------10--12--10------------10------------------------
G|--11---------11--------------------------------9--------------------11----------------------------
D|--_--11--9------11-----12--11------9--11--12--------------------9----------11------9------11--9--
A|--_----------------------------12----------------------------------------------12-----12---------
E|--_----------------------------------------------------------------------------------------------

Stave 3:

E|--_-----------------------------------------------------------------------------------------------
B|--_--10--12----10--12--10---------10--------------------------------------------------------------
G|--11------------------------9--11-------------------------11-----11--9--11--9----------11--12--14--
D|--_-----------------------------------11--12-----12--14-----------------------12--14--------------
A|--_-----------------------------------------------------------------------------------------------
E|--_-----------------------------------------------------------------------------------------------

Stave 4:

E|--_----------------------------------------9--10--12--14--14----12--10--9---------9--10--------
B|--11--12--14--12-----10--12--10---------10-------------------------------------10---------------
G|--_-----------------------------9--11----------------------------------------------------------
D|--_--------------------------------------------------------------------------------------------
A|--_--------------------------------------------------------------------------------------------
E|--_--------------------------------------------------------------------------------------------

Stave 5:

E|--10--9--7--------------14--14--12--10--9-------------
B|--_--------11--12--14---------------------10---------
G|--_-------------------------------------------11-----
D|--_--------------------------------------------------
A|--_--------------------------------------------------
E|--_--------------------------------------------------

http://www.guitartabcreator.com
Guitar Tab Creator is intended to store guitar tab created through the tool. It currently does not support in-line text editing. Any text you place in here will be lost. If you need to comment on your tab, please use the "Tab Notes" section located below.