Sound will begin in 5 seconds

Natural - Change

01234567891011121314151617181920212223
E
B
G
D
A
E
B
0 1 2 3 4 5 6 7 8 9 10 11 12 13 14 15 16 17 18 19 20 21 22 23
Song Science #1: How Pros Use 6 Chords to Write Hit Songs
(/) Slide Up  (\) Slide Down  (h) Hammer On  (p) Pull Off  (b) Bend (r) Release (v) Vibrato

Stave 1:

E|-----------------2--
B|--------------4-----
G|-----------3--------
D|--------4-----------
A|-----2--------------
E|--2-----------------

Stave 2:

E|-----------3--
B|--------0-----
G|-----0--------
D|--1-----------
A|--------------
E|--------------

Stave 3:

E|-----------------
B|--------------4--
G|-----------4-----
D|--------4--------
A|-----6-----------
E|--4--------------

Stave 4:

E|--------------
B|-----------4--
G|--------4-----
D|-----4--------
A|--4-----------
E|--------------

Stave 5:

E|--1-----------
B|-----2--------
G|--------3-----
D|-----------4--
A|--------------
E|--------------

Stave 6:

E|--2-----------
B|-----2--------
G|--------1-----
D|-----------1--
A|--------------
E|--------------

Stave 7:

E|--------------4--
B|-----------5-----
G|--------4--------
D|-----6-----------
A|--4--------------
E|-----------------

Stave 8:

E|--------------3--
B|-----------5-----
G|--------3--------
D|-----5-----------
A|--3--------------
E|-----------------

http://www.guitartabcreator.com
Guitar Tab Creator is intended to store guitar tab created through the tool. It currently does not support in-line text editing. Any text you place in here will be lost. If you need to comment on your tab, please use the "Tab Notes" section located below.