Sound will begin in 5 seconds

voor ray intro'tje

01234567891011121314151617181920212223
E
B
G
D
A
E
B
0 1 2 3 4 5 6 7 8 9 10 11 12 13 14 15 16 17 18 19 20 21 22 23
Song Science #1: How Pros Use 6 Chords to Write Hit Songs
(/) Slide Up  (\) Slide Down  (h) Hammer On  (p) Pull Off  (b) Bend (r) Release (v) Vibrato

Stave 1:

E|------------------------------------------------------------------------------------
B|------------------------------------------------------------------------------------
G|------------------------------------------------------------------------------------
D|--------------8--------------9--------------8--------------9--------------8----9----
A|----6----6---------6----6---------6----6---------6----6---------6----6--------------
E|------------------------------------------------------------------------------------

Stave 2:

E|------------------------------------------------------------------------------------
B|------------------------------------------------------------------------------------
G|------------------------------------------------------------------------------------
D|--------------8--------------6--------------8--------------6--------------8----6----
A|----5----5---------5----5---------5----5---------5----5---------5----5--------------
E|------------------------------------------------------------------------------------

Stave 3:

E|------------------------------------------------------------------------------------
B|------------------------------------------------------------------------------------
G|------------------------------------------------------------------------------------
D|--------------6--------------8--------------6--------------8--------------6----8----
A|----4----4---------4----4---------4----4---------4----4---------4----4--------------
E|------------------------------------------------------------------------------------

Stave 4:

E|------------------------------------------------------------------------------------
B|------------------------------------------------------------------------------------
G|------------------------------------------------------------------------------------
D|--------------6-----------------------------6-----------------------------6---------
A|-----------------------------9-----------------------------9-------------------9----
E|----7----7---------7----7---------7----7---------7----7---------7----7--------------

Stave 5:

E|------------------------------------------------------------------------------------
B|------------------------------------------------------------------------------------
G|------------------------------------------------------------------------------------
D|--------------6--------------8--------------6--------------8--------------6----8----
A|------------------------------------------------------------------------------------
E|----4----4---------4----4---------4----4---------4----4---------4----4--------------

Stave 6:

E|------------------------------------------------------------------------------------
B|------------------------------------------------------------------------------------
G|------------------------------------------------------------------------------------
D|--------------9--------------6--------------9--------------6--------------9----6----
A|------------------------------------------------------------------------------------
E|----7----7---------7----7---------7----7---------7----7---------7----7--------------

Stave 7:

E|------------------------------------------------------------------------------------
B|------------------------------------------------------------------------------------
G|------------------------------------------------------------------------------------
D|--------------6--------------8--------------6--------------8--------------6----8----
A|----4----4---------4----4---------4----4---------4----4---------4----4--------------
E|------------------------------------------------------------------------------------

Stave 8:

E|---------------------------------------------------------------------
B|---------------------------------------------------------------------
G|---------------------------------------------------------------------
D|--------------6-----------------------------6------------------------
A|-----------------------------9-------------------9----8----6---------
E|----7----7---------7----7---------7----7------------------------9----

Stave 9:

E|----------------------------------------------------------------------
B|----------------------------------------------------------------------
G|----------------------------------------------------------------------
D|---------8----9---------8----6---------------6----8---------6----4----
A|----6--------------6--------------------4--------------4--------------
E|----------------------------------------------------------------------

Stave 10:

E|----------------------------------------------------------------------
B|----------------------------------------------------------------------
G|----------------------------------------------------------------------
D|--------------6----8----9--------------------6----8---------8----9----
A|---------9-------------------9----------4--------------4--------------
E|----7-----------------------------------------------------------------

http://www.guitartabcreator.com
Guitar Tab Creator is intended to store guitar tab created through the tool. It currently does not support in-line text editing. Any text you place in here will be lost. If you need to comment on your tab, please use the "Tab Notes" section located below.