Sound will begin in 5 seconds

song 3

Chords
01234567891011121314151617181920212223
E
B
G
D
A
E
B
0 1 2 3 4 5 6 7 8 9 10 11 12 13 14 15 16 17 18 19 20 21 22 23
Song Science #1: How Pros Use 6 Chords to Write Hit Songs
(/) Slide Up  (\) Slide Down  (h) Hammer On  (p) Pull Off  (b) Bend (r) Release (v) Vibrato

Stave 1:

E|--------------------------------------------------
B|--------------------------------------------------
G|--------------------------------------------------
D|--7--7--7--7--7--7--7--7--7--7--7--6--6--6--6--6--
A|--4--4--4--5--5--5--5--5--7--7--7--7--7--7--7--7--
E|--------------------------------------------------

Stave 2:

E|-----------------------------------------------------
B|-----------------------------------------------------
G|-----5--5--7-----7--7--------------------------------
D|-----5--5--7-----7--7--------------------------------
A|-----3--3--5-----5--5-----7--7--7--7--7--7--7--7--7--
E|--------------------------5--5--5--4--4--4--4--4--4--

Stave 3:

E|--------------------------------------------------------------
B|--------------------------------------------------------------
G|-----5--5--7-----7--7-----14--14--14--13--13--13--13--13--13--
D|--------------------------------------------------------------
A|-----3--3--5-----5--5-----12--12--12--11--11--11--11--11--11--
E|--------------------------------------------------------------

Stave 4:

E|------------------------------------------------------------------------------------------------------
B|------------------------------------------------------------------------------------------------------
G|---------14--16--14--13---------16--18--16--14---------16--14--13------14-----18--16--14--18--16--14--
D|--14---------------------14---------------------14-----------------14---------------------------------
A|------------------------------------------------------------------------------------------------------
E|------------------------------------------------------------------------------------------------------

Stave 5:

E|----------------------------------
B|----------------------------------
G|--14--13------14--13------14--13--
D|----------14----------14----------
A|----------------------------------
E|----------------------------------

http://www.guitartabcreator.com
Guitar Tab Creator is intended to store guitar tab created through the tool. It currently does not support in-line text editing. Any text you place in here will be lost. If you need to comment on your tab, please use the "Tab Notes" section located below.