Sound will begin in 5 seconds

I Shot The Sheriff - Eric Clapton Live At Hyde Park

Chords
01234567891011121314151617181920212223
E
B
G
D
A
E
B
0 1 2 3 4 5 6 7 8 9 10 11 12 13 14 15 16 17 18 19 20 21 22 23
Song Science #1: How Pros Use 6 Chords to Write Hit Songs
(/) Slide Up  (\) Slide Down  (h) Hammer On  (p) Pull Off  (b) Bend (r) Release (v) Vibrato

Stave 1:

E|----------------------------------------------------------------------------5--
B|----------------------------------------------------------------------------6--
G|-----3--5--5/7-----12--10--12--5--------5-----------------3/5--3------------5--
D|--5-------------------------------8--5--------------3--5----------5p3h5-----7--
A|----------------------------------------------3--5--------------------------5--
E|-------------------------------------------------------------------------------

Stave 2:

E|---------------------------------------------------------
B|---------------------------------------------------------
G|--3/5--3---------3h5p3-----3--------------3h5--3---------
D|----------5p3h5---------5--------------3----------5p3h5--
A|---------------------------------3--5--------------------
E|---------------------------------------------------------

Stave 3:

E|-------------------------------------------------------------------------------------------------------
B|--8h11--10--8-----8h11--10----------------8h11--10--8-----8--10--11--11/13--11--10--8------------------
G|----------------------------12p10------------------------------------------------------10--------------
D|-----------------------------------12------------------------------------------------------12--10--12--
A|-------------------------------------------------------------------------------------------------------
E|-------------------------------------------------------------------------------------------------------

Stave 4:

E|---------------------------------------------------------------------------------
B|-----------------------11--10--6/8-----8h11--10--8-------------8h11--10--6/8-----
G|---------10-----------------------------------------10---------------------------
D|--10h12------10--8--------------------------------------12-----------------------
A|---------------------------------------------------------------------------------
E|---------------------------------------------------------------------------------

Stave 5:

E|-------------------------------------------------
B|--8--10--11h13--11--10--8------------------------
G|---------------------------10--------------------
D|-------------------------------12--10--12--------
A|-------------------------------------------------
E|----------------------------------------------15\

Stave 6:

E|---------------------------------------------------------------
B|-------------------------6-------------------------------------
G|--------------3--5/7--5-----5/7--3h5--3h5--3--5--3h5--3\2h3p2--
D|--------3--5---------------------------------------------------
A|--3--5---------------------------------------------------------
E|---------------------------------------------------------------

Stave 7:

E|--------------------------------------------------------------------------------------------------------
B|--15b18-----b18b18b18b18b18b18--18r15---------13--13h15p13----------13--13h15p13----------13--13h15p13--
G|------------------------------------------15----------------15--15----------------15--15----------------
D|--------------------------------------------------------------------------------------------------------
A|--------------------------------------------------------------------------------------------------------
E|--------------------------------------------------------------------------------------------------------

Stave 8:

E|-------------------------------------------------------------------------------------------------
B|----------13--13h15p13----------15--13----------13--13h15p13----------15--13/15--13------13--15--
G|--15--15----------------15--15----------15--15----------------15--15-----------------15----------
D|-------------------------------------------------------------------------------------------------
A|-------------------------------------------------------------------------------------------------
E|-------------------------------------------------------------------------------------------------

Stave 9:

E|-----------------------------------------------------------------------------------------------------
B|--13h15p13----------13--15--13------13--15--13h15p13------13--15-----15--13------13--15--13----------
G|------------15--15--------------15--------------------15---------------------15--------------15--14--
D|-----------------------------------------------------------------------------------------------------
A|-----------------------------------------------------------------------------------------------------
E|-----------------------------------------------------------------------------------------------------

Stave 10:

E|------
B|------
G|--12--
D|------
A|------
E|------

http://www.guitartabcreator.com
Guitar Tab Creator is intended to store guitar tab created through the tool. It currently does not support in-line text editing. Any text you place in here will be lost. If you need to comment on your tab, please use the "Tab Notes" section located below.